Wolfgang Amadeus Mozart - Turkish March tab

|--------------------------------12-----------------||-12----------13----15-13-12-13--------19-17-16-17--||----14-13-14---------------------------------------||---------------------------------------------------||---------------------------------------------------||---------------------------------------------------|
|-19-17-16-17--19-17-16-17---20----17-20--19-17----17-||-----------------------------------------------20----||-----------------------------------------------------||-----------------------------------------------------||-----------------------------------------------------||-----------------------------------------------------|
|-19-17----17----19-17---------------------15-15--17-15-||-------20-------------20-19-17----17-18----------------||-------------------------------------------------------||-------------------------------------------------------||-------------------------------------------------------||-------------------------------------------------------|
|----------------------15--15--17-15--------------------||-19-17--15----17-18-----------------18-17--15---13--15-||-------------------------------------------------------||-------------------------------------------------------||-------------------------------------------------------||-------------------------------------------------------|
|-12-12--13-12----------------------12--12--13-12---||--------------15-13--12----13-15-------------------||---------------------------------------------------||---------------------------------------------------||---------------------------------------------------||---------------------------------------------------|
|------------------------------12----------------19-17-16-17--||-12-----------13--15-13-12-13------19-17-16-17---------------||----14-13-14-------------------------------------------------||-------------------------------------------------------------||-------------------------------------------------------------||-------------------------------------------------------------|
|-19-17-16-17--20----17-19----20--19--17--16--17----||---------------------------------------------------||---------------------------------------------------||---------------------------------------------------||---------------------------------------------------||---------------------------------------------------|
|--------------------------------------------------------||---17---18----------------------------------------------||------------19--17----17--16h17p16h17p16h17p16h17p16----||-----------------------------------------------------19-||--------------------------------------------------------||--------------------------------------------------------|
|-17--19--21----17--19--21-19--17--------------17--19------17-19-||----------------------------------21--19--21---------21-17------||----------------------------------------------------------------||----------------------------------------------------------------||----------------------------------------------------------------||----------------------------------------------------------------|
|-21----17--19--21--19--17-------19-------17----17--19--21-||--------------------------21-19----21-17------------------||----------------------------------------------------------||----------------------------------------------------------||----------------------------------------------------------||----------------------------------------------------------|
|17-19-21-19-17------------17--19--21--17--19--21--19--17-||---------------21--19--21--------------------------------||---------------------------------------------------------||---------------------------------------------------------||---------------------------------------------------------||---------------------------------------------------------|
|---------19----------17----21-22-21-19-----19--------------------||-21--19------21--17---------------------22----22-21-19-22-21-19--||-----------------------------------------------------------------||-----------------------------------------------------------------||-----------------------------------------------------------------||-----------------------------------------------------------------|
|----------------------------------17----21-19-21-20-21-20-21-22-21-19-||----19-21----------18----19-18-21----21-------------------------------||-22-------22-18-20----18----------------------------------------------||----------------------------------------------------------------------||----------------------------------------------------------------------||----------------------------------------------------------------------|
|---19-------------------------------------------||-22---22-21-19-22-21-19-17-19-21-17-------17----||------------------------------------18-20----18-||------------------------------------------------||------------------------------------------------||------------------------------------------------|
|--------------------------------------------------------------16-17-17-16-||----17-19-----------------------17----------------------17-19-------------||-20-------20-17-18-20-17--18-------19-18-16----16-18-19-------------------||--------------------------------------------19----------------------------||--------------------------------------------------------------------------||--------------------------------------------------------------------------|
|-------------------------------------16-17-18-19-------------||-19-17-------------------------17-19-------------17----------||-------19-18-16-------16-18-19----------------------19-18-16-||----------------19-19----------------------------------------||-------------------------------------------------------------||-------------------------------------------------------------|
|-------------------16-17-17-16---------------------------------------------||-------------17-19-------------19-17----------------17---------------------||----16-18-19-------------------------19-18-16----18------18--16-19----16---||-19-------------------------------------------19-------19----------18----19||---------------------------------------------------------------------------||---------------------------------------------------------------------------|
|-21-22-21-19----19-------------------------------------------||-------------22-----22-21-19-22-21-19----19-21----------18---||--------------------------------------22-------22-18-20---18-||-------------------------------------------------------------||-------------------------------------------------------------||-------------------------------------------------------------|
|-------------17----17-19-21-20-21-20-21-19-22-21-22-21-22-21-22-21-22-21-19||-19-18-19-21----21---------------------------------------------------------||---------------------------------------------------------------------------||---------------------------------------------------------------------------||---------------------------------------------------------------------------||---------------------------------------------------------------------------|
|----------19-------19-21--------------------||-22-21-22----21--22------19----19-21-----19-||----------------------------22-------22-----||--------------------------------------------||--------------------------------------------||--------------------------------------------|
Tap to rate this tab
 
# A B C D E F G H I J K L M N O P Q R S T U V W X Y Z