Wolfmother - Wolfmother tab

Title: Wolmother Album Tab
Artist: Wolfmother
Tabbed by: Dazza (daz_000rulz@hotmail.com)

Hi guys, heres the right tab for Wolfmother's debut album (the Australian Version). Any 
or comments email me. Please rate and comment.

Enjoy.

TRACK LISTING

1.	 Colossal
2.	 Woman
3.	 White Unicorn
4.	 Pyramid
5.	 Minds Eye
6.	 Joker & The Thief
7.	 Dimension
8.	 Where Eagles Have been
9.	 Apple tree
10.	 Tales From the Forest Of Gnomes
11.	 Witchcraft
12.	 Vagabond

1.	Colossal

Intro|----------------------------------------------------||----------------------------------------------------||---7-------5---7-------7---7-------5---7---7p5------||---7---5h7-----7---5h7-----7---5h7-----7-------7----||---5-----------5-----------5-----------5------------||----------------------------------------------------|
|----------------------------------------------------||---------------------------------------7b-5b--------||---7-------5---7-------7---7-------5---7b-5b--------||---7---5h7-----7---5h7-----7---5h7------------------||---5-----------5-----------5------------------------||----------------------------------------------------|
Verse|--------------------------------||--------------------------------||---7-7---7-7---7-7---7-7--5-----||---7-7---7-7---7-7---7-7--5-----||---5-5---5-5---5-5---5-5--3-----||--------------------------------|
Chorus|--------------------------------------------||--------------------------------------------||--------------------5-5-5-5-5-5-5-5---------||---7-7-7-7-7-7-7-7--5-5-5-5-5-5-5-5---------||---7-7-7-7-7-7-7-7--3-3-3-3-3-3-3-3---------||---5-5-5-5-5-5-5-5--------------------------|
|----------------------------------------------------||---------------------------------------7b-5b--------||---7-------5---7-------7---7-------5---7b-5b--------||---7---5h7-----7---5h7-----7---5h7------------------||---5-----------5-----------5------------------------||----------------------------------------------------|
|--------------------------------------------||--------------------------------------------||--------------------5-5-5-5-5-5-5-5---------||---7-7-7-7-7-7-7-7--5-5-5-5-5-5-5-5---------||---7-7-7-7-7-7-7-7--3-3-3-3-3-3-3-3---------||---5-5-5-5-5-5-5-5--------------------------|
|----------(Play 4 Times)---------------||---------------------------------------||---5-7----13-12----6-5----8-7----------||---5-7----13-12----6-5----8-7----------||---3-5----11-10----4-3----6-5----------||---------------------------------------|
|---------------------------------------||---------------------------------------||--------------------------5------------||---7-7---7-7---7-7---7-7--5------------||---7-7---7-7---7-7---7-7--3------------||---5-5---5-5---5-5---5-5---------------|
|--------------------------------------------||--------------------------------------------||--------------------------------------------||--------------------------------------------||---3/5-5555ó-3/5-5555-ó3/5-5555--7-7-7------||--------------------------------------------|
|--------------------------------------------||--------------------------------------------||--------------------------------------------||---------------------------------5-6-7------||---3/5-5555ó-3/5-5555ó-3/5-5555--5-6-7------||---------------------------------3-4-5------|
|--------------------------------------------||--------------------------------------------||---5/7-7777ó-5/7-7777--5/7-7777--9-9-9------||---5/7-7777ó-5/7-7777--5/7-7777--9-9-9------||---3/5-5555ó-3/5-5555ó-3/5-5555--7-7-7------||--------------------------------------------|
|--------------------------------------------||--------------------------------------------||---5/7-7777ó-5/7-7777--5/7-7777-------------||---5/7-7777ó-5/7-7777--5/7-7777--5-6-7------||---3/5-5555ó-3/5-5555ó-3/5-5555--5-6-7------||---------------------------------3-4-5------|
|---------------------------------||---------------------------------||---10-10-10-9-9-9-8-8-8-7--------||---10-10-10-9-9-9-8-8-8-7--------||---8--8--8--7-7-7-6-6-6-5--------||---------------------------------|
|---------------------------------||---------------------------------||---10-------9-------8------7-----||---10-------9-------8------7-----||---8--------7-------6------5-----||---------------------------------|
----------------------------------------------------------------------------- 2. Woman
Intro|----------------------------------------||----------------------------------------||--9-9-9-9-9-9---------9-9-9-9-9-9-------||--9-9-9-9-9-9---------9-9-9-9-9-9-------||--7-7-7-7-7-7-----5---7-7-7-7-7-7-----5-||--------------5h7-----------------5h7---|
|-----------------(Play 4 Times)---------||----------------------------------------||--9-9-9-9-9-9---------------------------||--9-9-9-9-9-9---------7--------5--------||--7-7-7-7-7-7-----5---7--------5--------||--------------5h7-----5--------3--------|
Chorus|---------------------------------------------------------------------||---------------------------------------------------------------------||---------------------------------------------------------------------||--7----------------10----------------7----------------10-------------||--7----------------10----------------7----------------10-------------||--5----------------8-----------------5----------------8--------------|
|-----------------|------------------||-----------------|------------------||-----------------|------------------||--9--------------|--12--------------||--9--------------|--12--------------||--7--------------|--10--------------|
|----------------------------------------||----------------------------------------||--9-9-9-9-9-9---------9-9-9-9-9-9-------||--9-9-9-9-9-9---------9-9-9-9-9-9-------||--7-7-7-7-7-7-----5---7-7-7-7-7-7-----5-||--------------5h7-----------------5h7---|
|-----------------(Play 3 Times)---------||----------------------------------------||--9-9-9-9-9-9---------------------------||--9-9-9-9-9-9---------7--------5--------||--7-7-7-7-7-7-----5---7--------5--------||--------------5h7-----5--------3--------|
Chorus|---------------------------------------------------------------------||---------------------------------------------------------------------||---------------------------------------------------------------------||--7----------------10----------------7----------------10-------------||--7----------------10----------------7----------------10-------------||--5----------------8-----------------5----------------8--------------|
|-----------------|------------------||-----------------|------------------||-----------------|------------------||--9--------------|--12--------------||--9--------------|--12--------------||--7--------------|--10--------------|
Bridge|---------------------(Play 4 Times)---------||--------------------------------------------||--------------------------------------------||--------------------------------------------||--7-5---5---------------7-5---5-------------||------7---7-5-7-5-3-5-------7---7-5-7-5-3-0-|
|---------------------(Play 15 Times)-------||-------------------------------------------||-------------------------------------------||-------------------------------------------||--------5---------5----------5--------7----||--0-5-7-----0-5-7------0-5-7----0-5-7------|
|--------------------------------------------||--------------------------------------------||--------------------------------------------||-----------------------7---------5----------||--7-5---5--------------7---------5----------||------7---7-5-7-5------5---------3----------|
|----------------------------------------||----------------------------------------||--9-9-9-9-9-9---------9-9-9-9-9-9-------||--9-9-9-9-9-9---------9-9-9-9-9-9-------||--7-7-7-7-7-7-----5---7-7-7-7-7-7-----5-||--------------5h7-----------------5h7---|
|----------------------------------------||----------------------------------------||--9-9-9-9-9-9---------------------------||--9-9-9-9-9-9---------7--------5--------||--7-7-7-7-7-7-----5---7--------5--------||--------------5h7-----5--------3--------|
Ending|--------------------------------------------||--------------------------------------------||--------------------------------------------||--------------------------------------------||--7-5---5---------------7-5---5-------------||------7---7-5-7-5-3-5-------7---7-5-7-5-3-0-|
----------------------------------------------------------------------------- 3. White Unicorn
Intro|---14-14-14---12-12-12---7---9----2-2-2--||---15-15-15---13-13-13---8---10---3-3-3--||---14-14-14---12-12-12---7---9----2-2-2--||-----------------------------------------||-----------------------------------------||-----------------------------------------|
|---------------------------||---------------------------||--5-7----7-10----5-5-5-7---||--5-7----7-10----5-5-5-7---||--3-5----5--8----3-3-3-5---||---------------------------|
|----------------------------------------------------------------||----------------------------------------------------------------||----------------------------------------------------------------||--5-5-5-5-5-5-5-5-5-5-5-5-5-5-5-5-5-5-5-5-5-5-5-5-5-5-5-5-5-5-5-||--5-5-5-5-5-5-5-5-5-5-5-5-5-5-5-5-3-3-5-5-5-5-5-5-5-5-5-5-5-5-5-||--3-3-3-3-3-3-3-3-3-3-3-3-3-3-3-3-3-3-3-3-3-3-3-3-3-3-3-3-3-3-3-|
|---14-14-14---12-12-12---7---9----2-2-2--||---15-15-15---13-13-13---8---10---3-3-3--||---14-14-14---12-12-12---7---9----2-2-2--||-----------------------------------------||-----------------------------------------||-----------------------------------------|
|---14-14-14---12-12-12---15---17---14-14-14----||---15-15-15---13-13-13---16---18---15-15-15----||---14-14-14---12-12-12---15---17---14-14-14----||-----------------------------------------------||-----------------------------------------------||-----------------------------------------------|
|---15-15-15---17-17-17---15-15-15---17-17-17---15-15-15---17-17-17-||---16-16-16---18-18-18---16-16-16---18-18-18---16-16-16---18-18-18-||---15-15-15---17-17-17---15-15-15---17-17-17---15-15-15---17-17-17-||-------------------------------------------------------------------||-------------------------------------------------------------------||-------------------------------------------------------------------|
|---15-15-15---17-17-17---15-15-15---17-17-17---15-15-15---17-17-17-||---16-16-16---18-18-18---16-16-16---18-18-18---16-16-16---18-18-18-||---15-15-15---17-17-17---15-15-15---17-17-17---15-15-15---17-17-17-||-------------------------------------------------------------------||-------------------------------------------------------------------||-------------------------------------------------------------------|
|---15-15-15---17-17-17---15-15-15---17-17-17---19-19-19---19-19-19--||---16-16-16---18-18-18---16-16-16---18-18-18---20-20-20---20-20-20--||---15-15-15---17-17-17---15-15-15---17-17-17---19-19-19---19-19-19--||--------------------------------------------------------------------||--------------------------------------------------------------------||--------------------------------------------------------------------|
|---19-19-19---19-19-19---19-19-19---19-19-19---19-19-19---19-19-19--||---20-20-20---20-20-20---20-20-20---20-20-20---20-20-20---20-20-20--||---19-19-19---19-19-19---19-19-19---19-19-19---19-19-19---19-19-19--||--------------------------------------------------------------------||--------------------------------------------------------------------||--------------------------------------------------------------------|
|---19-19-19---19-19-19---19-19-19---19-19-19----||---20-20-20---20-20-20---20-20-20---20-20-20----||---19-19-19---19-19-19---19-19-19---19-19-19----||------------------------------------------------||------------------------------------------------||------------------------------------------------|
Outro|----------------------------------------------------------------||----------------------------------------------------------------||----------------------------------------------------------------||--5-5-5-5-5-5-5-5-5-5-5-5-5-5-5-5-5-5-5-5-5-5-5-5-5-5-5-5-5-5-5-||--5-5-5-5-5-5-5-5-5-5-5-5-5-5-5-5-3-3-5-5-5-5-5-5-5-5-5-5-5-5-5-||--3-3-3-3-3-3-3-3-3-3-3-3-3-3-3-3-3-3-3-3-3-3-3-3-3-3-3-3-3-3-3-|
----------------------------------------------------------------------------- 4. Pyramid Intro
|-------||-------||-------||-------||-------||--3~~~-|
|------------------------------------------||------------------------------------------||------------------------------------------||------------------------------------------||------------------------------------------||------------------------------------------||-3-p0--3-p0--3-p0--3-p0--3-p0--3-p0--3/6b-|
|--13-11-10~----13-11-10-------------------||------------------------13-11-10-11-10----||------------------------------------------||------------------------------------------||------------------------------------------||------------------------------------------|
|------------------------------------------||--10-11-13-----10-11-13-------------------||------------------------------------------||------------------------------------------||------------------------------------------||--------------------(Play 2 Times)--------|
|--13-11-10~----13-11-10-------------------||------------------------13-11-10-11-10\---||------------------------------------------||------------------------------------------||------------------------------------------||------------------------------------------|
Pre Verse|------------------(Play 4 Times)----------||------------------------------------------||------------------------------------------||------------------------------------------||------------------------------------------||------------------------------------------||-3-p0--3-p0--3-p0--3-p0--3-p0--3-p0--3/6b-|
After Verse|---------------------(Play 2 Times)-------||------------------------------------------||------------------------------------------||------------------------------------------||------------------------------------------||------------------------------------------||-3-p0--3-p0--3-p0--3-p0--3-p0--3-p0--3/6~-|
|--------------------(Play 4 Times)--------||------------------------------------------||------------------------------------------||------------------------------------------||------------------------------------------||---------------------------------------6b-|
|--13-11-10~----13-11-10-------------------||------------------------13-11-10-11-10----||------------------------------------------||------------------------------------------||------------------------------------------||------------------------------------------|
|------------------------------------------||--10-11-13-----10-11-13-------------------||------------------------------------------||------------------------------------------||------------------------------------------||------------------(Play 2 Times)----------|
|--13-11-10~----13-11-10-------------------||------------------------13-11-10-11-10\---||------------------------------------------||------------------------------------------||------------------------------------------||------------------------------------------|
|------------------(Play 4 Times)------------||--------------------------------------------||--------------------------------------------||--------------------------------------------||-------------------------------------3p1--1-||-3-p0--3-p0--3-p0--3-p0--3-p0--3-p0-----3---|
|--------------------------------------------||--------------------------------------------||--------------------------------------------||--------------------------------------------||------------------------------10p8----8-----||-10--10--10--10--10--10--10--------10-------|
|--------------------------------------------||--------------------------------------------||--------------------------------------------||--------------------------------------------||----------------10p8----8-------------------||-8---8---8---8-------10---10-8-10-8-6-8-6-5-|
|-------------------(Play 2 Times)--------||-----------------------------------------||-----------------------------------------||--5~~~~-----------------3~~~~------------||--5~~~~-----------------3~~~~------------||--3~~~~-----------------1~~~~------------|
|-----------------------------------------------------||-----------------------------------------------------||-----------------------------------------------------||--8~~~~~-----------------10~~~~----------------------||--8~~~~~-----------------10~~~~----------------------||--6~~~~~-----------------8~~~~~----------------------|
Solo|------------------------------------------------------------||--------------------------------------------------------6---||-------3---3--5--7--7ó7\---5\3----------------3--5--7-------||-5-3h5---5-------------\5------5--3-----3--5----------------||-------------------------------------5----------------------||------------------------------------------------------------|
|-----6-----6-----6-----6-----6-----6-----6------6--8--6-----||-6h8---6h8---6h8---6h8---6h8---6h8---6h8----6h8----------8--||------------------------------------------------------------||------------------------------------------------------------||------------------------------------------------------------||------------------------------------------------------------|
|-6----------------------------------------------------------||----8--6--8--6-----6----------------------------------------||----------------7-----7--5--7--5--3--5--3-----3-----------3-||-------------------------------------------5-----5--3--5----||------------------------------------------------------------||------------------------------------------------------------|
|------------------------------------------------8--10---10--||------------------------------------------6--8--------------||-5ó7----bf7>------p5-------------3--5--7--------------------||---------------------5--3ó-3--5-----------------------------||------------------------------------------------------------||------------------------------------------------------------|
|-10p8p6---------bh10----------------------------------------||---------8--11----------------------------------------------||------------------------------------------------------------||------------------------------------------------------------||------------------------------------------------------------||------------------------------------------------------------|
Verse
Outro|--13-11-10~----13-11-10-------------------||------------------------13-11-10-11\------||------------------------------------------||------------------------------------------||------------------------------------------||------------------------------------------|
|----------------------(Play 4 Times)--------||--------------------------------------------||--------------------------------------------||--------------------------------------------||-------------------------------------3p1--1-||-3-p0--3-p0--3-p0--3-p0--3-p0--3-p0-----3---|
|--------------------------------------------||--------------------------------------------||--------------------------------------------||--------------------------------------------||------------------------------10p8----8-----||-10--10--10--10--10--10--10--------10-------|
|---------------------------------------------------------------------||---------------------------------------------------------------------||---------------------------------------------------------------------||-----------5p3---3--------------5p3---3--------------5p3---3---------||3--3--3--3-----5---5-3-5-3--3-------5---5-3-5-3--3-------5---5-3-5-3-||---------------------------6-6-5----------------6-6-5---------------6|
|--------------------------------------------||--------------------------------------------||--------------------------------------------||----5---------------------------------------||----5---------------------------------------||----3---------------------------------------|
----------------------------------------------------------------------------- 5. Mindís Eye
Introe|--------------------------------------------------------------------|B|----17----17----17----17----17----17----17----17----17---17---17----|G|-17----17----17----17----16----16----16----16----14----14---14---14-|D|--------------------------------------------------------------------|A|--------------------------------------------------------------------|E|---------------------------------------------(Play 2 Times)---------|
Verse|--------(Play 3 Times)--||------------------------||------------------------||-7~-------5~--------3~--||-7~-------5~--------3~--||-5~-------3~--------1~--|
|-------------------------------------------||-------------------------------------------||----------------------------------7-9-12---||-7--------5---------3--5--7--9-10-7-9-12---||-7--------5---------3--5--7--9-10-5-7-10---||-5--------3---------1--3--5--7-8-----------|
Chorus|--------------------------------------------||--------------------------------------------||-14--------12-----------------------7-9-12--||-14--------12---------3--5--7--9-10-7-9-12--||-12--------10---------3--5--7--9-10-5-7-10--||----------------------1--3--5--7-8----------|
|---||---||-2-||-2-||-0-||---|
|-(Play 5 Times)-||----------------||--7-5------7-2--||--7-5------7-2--||--5-3------5-0--||----------------|
|---(Play 3 Times)-------||------------------------||------------------------||-7~-------5~--------3~--||-7~-------5~--------3~--||-5~-------3~--------1~--|
|-------------------------------------------||-------------------------------------------||----------------------------------7-9-12---||-7--------5---------3--5--7--9-10-7-9-12---||-7--------5---------3--5--7--9-10-5-7-10---||-5--------3---------1--3--5--7-8-----------|
|---||---||-2-||-2-||-0-||---|
|-(Play 4 Times)-||----------------||--7-5------7-2--||--7-5------7-2--||--5-3------5-0--||----------------|
|---------------------------------||---------------------------------||------------------------7-9-12---||----------3--5--7--9-10-7-9-12---||----------3--5--7--9-10-5-7-10---||----------1--3--5--7-8-----------|
|---||---||-2-||-2-||-0-||---|
|-(Play 2 Times)-||----------------||--7-5------7-2--||--7-5------7-2--||--5-3------5-0--||----------------|
|-----------------------------------------------||-----------------------------------------------||-7~------7~------------------------7-5----7-2--||-7~------7~-----7-7-7-7-5-5-7~-----7-5----7-2--||-3~------5~-----7-7-7-7-5-5-7~-----5-3----5-0--||----------------5-5-5-5-3-3-5~-----------------|
Ending|-------------------------------------||-------------------------------------||------------------------7-9-12-14~---||----------3--5--7--9-10-7-9-12-14~---||----------3--5--7--9-10-5-7-10-12~---||----------1--3--5--7-8---------------|
----------------------------------------------------------------------------- 6. Joker & The Thief (Drop D)
Intro|-----------------------------------------------||-----------------------------------------------||---------0h5h7---------0h5h7-------------------||---0h5h7---------0h5h7-------------------------||-----------------------------------------------||-----------------------------------------------|
Verse:|-----------------(Play 3 Times)----------------||-----------------------------------------------||-----------------------------------------------||--12-12-12-12-12-12--10h12-10h12-10h12---------||--12-12-12-12-12-12--10h12-10h12-10h12---------||--12-12-12-12-12-12--10h12-10h12-10h12---------|
|-----------------------------------------------||-----------------------------------------------||-----------------------------------------------||--15-15-15-15-/-17-17---15h17-15h17-15-/-------||--15-15-15-15-/-17-17---15h17-15h17-15-/-------||--15-15-15-15-/-17-17---15h17-15h17-15-/-------|
|------------------------(Play 5 Times)---------||-----------------------------------------------||-----------------------------------------------||-/12-12-12-12-12-12--10h12-10h12-10h12---------||-/12-12-12-12-12-12--10h12-10h12-10h12---------||-/12-12-12-12-12-12--10h12-10h12-10h12---------|
|-----------------------------------------------||-----------------------------------------------||-----------------------------------------------||--15-15-15-15-/-17-17---15h17-15h17-15-/-------||--15-15-15-15-/-17-17---15h17-15h17-15-/-------||--15-15-15-15-/-17-17---15h17-15h17-15-/-------|
|-----------------------------------------------||-----------------------------------------------||-----------------------------------------------||-/12-12-12-12-12-12--10h12-10h12-10h12---------||-/12-12-12-12-12-12--10h12-10h12-10h12---------||-/12-12-12-12-12-12--10h12-10h12-10h12---------|
|-----------------------------------------------||-----------------------------------------------||-----------------------------------------------||--15-----------------17------------------------||--15-----------------17------------------------||--15-----------------17------------------------|
Chorus|-----------------------------------------------||-----------------------------------------------||---------0h5h7---------0h5h7-------------------||---0h5h7---------0h5h7-------------------------||-----------------------------------------------||-----------------------------------------------|
Verse|---------------------(Play 5 Times)------------||-----------------------------------------------||-----------------------------------------------||--12-12-12-12-12-12--10h12-10h12-10h12---------||--12-12-12-12-12-12--10h12-10h12-10h12---------||--12-12-12-12-12-12--10h12-10h12-10h12---------|
|-----------------------------------------------||-----------------------------------------------||-----------------------------------------------||--15-----------------17------------------------||--15-----------------17------------------------||--15-----------------17------------------------|
|----------------------(Play 5 Times)-----------||-----------------------------------------------||-----------------------------------------------||--12-12-12-12-12-12--10h12-10h12-10h12---------||--12-12-12-12-12-12--10h12-10h12-10h12---------||--12-12-12-12-12-12--10h12-10h12-10h12---------|
|-----------------------------------------------||-----------------------------------------------||-----------------------------------------------||--15-----------------17------------------------||--15-----------------17------------------------||--15-----------------17------------------------|
Chorus|-----------------------------------------------||-----------------------------------------------||---------0h5h7---------0h5h7-------------------||---0h5h7---------0h5h7-------------------------||-----------------------------------------------||-----------------------------------------------|
Solo|---------------------------------------------------------||---------------------------------------------------------||---------------------------------------------------------||-------7-5-4-5-4-----------7-5-4-5-4---------------------||--5--------------5-3-----------------7-5-----------------||---------------------------------------------------------|
|---------------------------------------------------------||---------------------------------------------------------||---------------------------------------------------------||-------7-5-4-5-4-----------7-5-4-5-4-5--5/7--7/9---9b10--||-----------------5-3-------------------------------------||---------------------------------------------------------|
|---------------------------------------------------------||---------------------------------------------------------||-14---14-12-11-12-11---------14-12-11-12-11--------------||--------------------12-10-----------------14-12----------||---------------------------------------------------------||---------------------------------------------------------|
|---------------------------------------------------------||---------------------------------------------------------||-14---14-12-11-12-11---------14-12-11-12-11--12--12/14---||--------------------12-10--------------------------------||---------------------------------------------------------||---------------------------------------------------------|
|---------------------------------------------------------||---------------------------------------------------------||--14-14/16--16b17----------------------------------------||---------------------------------------------------------||---------------------------------------------------------||---------------------------------------------------------|
|---------------------------------------------------------||------------------h20---------------------h22------------||---21-21-21-21p19----------21-21-21-21p19----------------||---------------------------------------------------------||---------------------------------------------------------||----------------------------------(Play 3 Times)---------|
|---------------------------------------------------------||---22b23---22p19-----------------------------------------||-----------------h20-~~~~~~~~~---------------------------||-------------------------------------15----------17------||-------------------------------------15----------17------||-------------------------------------15----------17------|
Outro|--------------------------(Play 5 Times)-------||-----------------------------------------------||-----------------------------------------------||--12-12-12-12-12-12--10h12-10h12-10h12---------||--12-12-12-12-12-12--10h12-10h12-10h12---------||--12-12-12-12-12-12--10h12-10h12-10h12---------|
|----------------------|(Play 8 Times)------------||----------------------|-----------|--------------||----------------------|-----------|--------------||--15---17---15---17---|------15---|----17--------||--15---17---15---17---|------15---|----17--------||--15---17---15---17---|------15---|----17--------|
|-----------------------------------------------||-----------------------------------------------||-----------------------------------------------||--12~~~~~~~~~~~~-------------------------------||--12~~~~~~~~~~~~-------------------------------||--12~~~~~~~~~~~~-------------------------------|
----------------------------------------------------------------------------- 7. Dimension
Intro|-----------------(Play 4 Times)---||----------------------------------||----------------------------------||--------------------------------5-||--7---7---7---7---7---7--0h5--7---||--0---0---0---0---0---0-----------|
Verse|----------------------------------------------------------------||----------------------------------------------------------------||----------------------------------------------------------------||-14--------------14-14-14---------7-7-7-----------14-14-14------||-14--------------14-14-14---------7-7-7-----------14-14-14------||-12--------------12-12-12---------5-5-5-----------12-12-12------|
|----------------------------------------------------------------||----------------------------------------------------------------||----------------------------------------------------------------||-9-9-9-----------(9)--------------7~~-------------(7)\----------||-9-9-9-----------(9)--------------7~~-------------(7)\----------||-7-7-7-----------(7)--------------5~~-------------(5)\----------|
Chorus|---------------------------------------------------------------------||---------------------------------------------------------------------||----------------7-7-9--7---------------------------7-7-9--7----------||------5-6-7-8-9----------9-8-7-6-5-------5-6-7-8-9----------9-8-7-6-5||-5-7--------------------------------5-7------------------------------||---------------------------------------------------------------------|
|------------------------------------------------------------------||------------------------------------------------------------------||------------------------------------------------------------------||-14--------------8-7---------------12-14-----------8-7------------||-14--------------8-7---------------12-14-----------8-7------------||-12--------------6-5---------------10-12-----------6-5------------|
Riff|-----------------------------------------------------------------||-----------------------------------------------------------------||-----------------------------------------------------------------||--------------5----------------5---------------5---------------5-||----7---0-5h7-------7---0-5h7--------7---0-5h7-------7---0-5h7---||-0---------------0-----------------------------------------------|
Verse|----------------------------------------------------------------||----------------------------------------------------------------||----------------------------------------------------------------||-14--------------14-14-14---------7-7-7-----------14-14-14------||-14--------------14-14-14---------7-7-7-----------14-14-14------||-12--------------12-12-12---------5-5-5-----------12-12-12------|
|----------------------------------------------------------------||----------------------------------------------------------------||----------------------------------------------------------------||-9-9-9-----------(9)--------------7~~-------------(7)\----------||-9-9-9-----------(9)--------------7~~-------------(7)\----------||-7-7-7-----------(7)--------------5~~-------------(5)\----------|
|---------------------------------------------------------------------||--------------------------------------------------8-8-10-8-----------||---------------7-7-9--7-----------------5-6-7-8-9----------9-8-7-6-5-||------5-6-7-8-9---------9-8-7-6-5--5-7-------------------------------||-5-7-----------------------------------------------------------------||---------------------------------------------------------------------|
|-----------------------------------------------------------------||-----------------------------------------------------------------||-----------------------------------------------------------------||-14--------------8-7--------------12-14-----------8-7------------||-14--------------8-7--------------12-14-----------8-7------------||-12--------------6-5--------------10-12-----------6-5------------|
|---------------------------------------------------------------||---------------------------------------------------------------||-12--12--12--12--12--12--12--12--14--14--14--14--14~~~---------||-12--12--12--12--12--12--12--12--14--14--14--14--14~~~---------||-10--10--10--10--10--10--10--10--12--12--12--12--12~~~---------||---------------------------------------------------------------|
|----------------------------------------------------||----------------------------------------------------||----------------------------------------------------||--7--7--7--7---7--7--7--7---7--7--7--7---7--7--7--7-||--7--7--7--7---7--7--7--7---7--7--7--7---7--7--7--7-||--5--5--5--5---5--5--5--5---5--5--5--5---5--5--5--5-|
|-----------------------------------------------------------------||-----------------------------------------------------------------||-----------------------------------------------------------------||--------------5----------------5---------------5---------------5-||----7---0-5h7-------7---0-5h7--------7---0-5h7-------7---0-5h7---||-0---------------0-----------------------------------------------|
|----------------------------------------------------||----------------------------------------------------||----------------------------------------------------||--9--9--9--9---9--9--9--9---7--7--7--7---7\---------||--9--9--9--9---9--9--9--9---7--7--7--7---7\---------||--7--7--7--7---7--7--7--7---5--5--5--5---5\---------|
|---------------------------------------------------------------------||---------------------------------------------------7-7-9--7----------||----------------7-7-9--7-----------------4-5-6-7-8----------8-7-6-5-4||------5-6-7-8-9----------9-8-7-6-5--4-6------------------------------||-5-7-----------------------------------------------------------------||---------------------------------------------------------------------|
Ending|----------(Play 4 Times)----------||----------------------------------||----------------------------------||--------------------------------5-||--7---7---7---7---7---7--0h5--7---||--0---0---0---0---0---0-----------|
----------------------------------------------------------------------------- 8. Where Eagles Have Been
Intro|--2-----------2--3p2-0--2----1-----------1--1--1p0--------||--------3-----------------3--------3---------------3------||-----2-----2--------------------2-----2---------------2---||--0--------------0---0-------0--------------0--0----------||--------------------------------(Play 2 Times)------------||----------------------------------------------------------|
Verse|--2-----------2--3p2-0--2----1-----------1--1--1p0--------||--------3-----------------3--------3---------------3------||-----2-----2--------------------2-----2---------------2---||--0--------------0---0-------0--------------0--0----------||----------------------------------------------------------||---------------------------------(Play 3 Times)-----------|
|--3-----------3--3-----------3--0-----------0------------------||--------3--------------3--------------1--------2-----------2---||-----------------------------------------------------2---------||--------------------------------------------------2-----2------||-----------------------------------2-----2-----0---------------||-----2-----2--------2-----2-----3------------------------------||--3--------------3---------------------------------------------|
|--2-----------2--3p2-0--2----1-----------1--1--1p0--------||--------3-----------------3--------3---------------3------||-----2-----2--------------------2-----2---------------2---||--0--------------0---0-------0--------------0--0----------||----------------------------------------------------------||----------------------------------------------------------|
|--2-----------2--3p2-0--2----1-----------1--1--1p0--------||--------3-----------------3--------3---------------3------||-----2-----2--------------------2-----2---------------2---||--0--------------0---0-------0--------------0--0----------||----------------------------------------------------------||--------------------------------(Play 3 Times)------------|
|--3-----------3--3-----------3--0-----------0------------------||--------3--------------3--------------1--------2-----------2---||-----------------------------------------------------2---------||--------------------------------------------------2-----2------||-----------------------------------2-----2-----0---------------||-----2-----2--------2-----2-----3------------------------------||--3--------------3---------------------------------------------|
|--2-----------2--3p2-0--2-----5-----------5--7-----8p7--------||--------3------------------3--------4------------------8------||-----2-----2---------------------5-----5--------7---------7---||--0--------------0---0--------0--------------0----------------||--------------------------------------------------------------||--------------------------------------------------------------|
|--2-----------2--3p2-0--2-----5-----------5--7-----8p7--------||--------3------------------3--------4------------------8------||-----2-----2---------------------5-----5--------7---------7---||--0--------------0---0--------0--------------0----------------||--------------------------------------------------------------||--------------------------------------------------------------|
Chorus|-----------------------------------------------------------||----------------------------10------------------------12---||--11------------------------10------------------------12---||--12------------------------10------------------------12---||--12------------------------8-------------------------10---||--10------------------------8-------------------------10---|
|-----------------------------------------(Play 4 Times)----||----------------------------10------------------------12---||--11-11-11------------------10------------------------12---||--12-12-12------------------10------------------------12---||--12-12-12------------------8-------------------------10---||--10-10-10------------------8-------------------------10---|
Bridge|-----------------------------------------(Play 2 Times)-----------||------------------------------------------------------------------||--11-------------------9--------------------4-------------------4-||--12-------------------10-------------------7-------------------5-||--12-------------------10-------------------7-------------------5-||--10-------------------8--------------------5-------------------3-|
Fill|-----------------(Play 4 Times)-||--------------------------------||--------------------------------||---------------3----------------||--5--5--0h3h5-----5p3p0---------||--------------------------------|
Verse|--2-----------2--3p2-0--2----1-----------1--1--1p0--------||--------3-----------------3--------3---------------3------||-----2-----2--------------------2-----2---------------2---||--0--------------0---0-------0--------------0--0----------||----------------------------------------------------------||------------------------------------(Play 3 Times)--------|
|--3-----------3--3-----------3--0-----------0------------------||--------3--------------3--------------1--------2-----------2---||-----------------------------------------------------2---------||--------------------------------------------------2-----2------||-----------------------------------2-----2-----0---------------||-----2-----2--------2-----2-----3------------------------------||--3--------------3---------------------------------------------|
Chorus|-----------------------------------------------------------||----------------------------10------------------------12---||--11------------------------10------------------------12---||--12------------------------10------------------------12---||--12------------------------8-------------------------10---||--10------------------------8-------------------------10---|
|----------------------------------------(Play 4 Times)-----||----------------------------10------------------------12---||--11-11-11------------------10------------------------12---||--12-12-12------------------10------------------------12---||--12-12-12------------------8-------------------------10---||--10-10-10------------------8-------------------------10---|
|------------------------------------------(Play 4 Times)----------||------------------------------------------------------------------||--11-------------------9--------------------4-------------------4-||--12-------------------10-------------------7-------------------5-||--12-------------------10-------------------7-------------------5-||--10-------------------8--------------------5-------------------3-|
Keyboard solo (no guitar)
|------------------------------------------(Play 3 Times)------------||---------------10------------12-------------------------------------||--11-----------10------------12--------------11--9---11--9---11--9--||--12-----------10------------12--------------12--10--12--10--12--10-||--12-----------8-------------10--------------12--10--12--10--12--10-||--10-----------8-------------10--------------10--8---10--8---10--8--|
|---------------------------------------------------(Play 6 Times)----||------------------10-------------------------------------------------||--11--------------10----------------------11--11--11--11--11--9------||--12--------------10----------------------12--12--12--12--12--10-----||--12--------------8-----------------------12--12--12--12--12--10-----||--10--------------8-----------------------10--10--10--10--10--8------|
Fill|---------(Play 4 Times)---------||--------------------------------||--------------------------------||---------------3----------------||--5--5--0h3h5-----5p3p0---------||--------------------------------|
Outro|--2-----------2--3p2-0--2----1-----------1--1--1p0--------||--------3-----------------3--------3---------------3------||-----2-----2--------------------2-----2---------------2---||--0--------------0---0-------0--------------0--0----------||----------------------------------------------------------||-------------------------------------(Play 2 Times)-------|
|--3-----------3--3-----------3--0-----------0-----------------2--||--------3--------------3--------------1--------2-----------2-----||-----------------------------------------------------2-----------||--------------------------------------------------2-----2-----0--||-----------------------------------2-----2-----0-----------------||-----2-----2--------2-----2-----3--------------------------------||--3--------------3-----------------------------------------------|
----------------------------------------------------------------------------- 9. Apple Tree
Intro|xxxxxxxxxxxxxxxxxxxxxxxxxxxxxxxxxxxxxxxxxxxxxxxxxxxxxxxxxxxxxxxxxxxx||xxxxxxxxxxxxxxxxxxxxxxxxxxxxxxxxxxxxxxxxxxxxxxxxxxxxxxxxxxxxxxxxxxxx||--------------------------(7)------------------------------------(7)||---------------------------8--------------------------------------8-||---------------------------8--------------------------------------8-||---------------------------6-----------(Play 2 Times)-------------6-|
|xxxxxxxxxxxxxx||xxxxxxxxxxxxxx||xxxxxxxxxxxxxx| (Play 4 Times)|8-8-8-8-8-8--8||8-8-8-8-8-8--6||6-6-6-6-6-6--x|
|xxxxxxxxxxxxxxxxxxxxxxxxxxxxxxxxxxxxxxxxxxxxxxxxxxxxxxxxxxxxxxxxxxxx||xxxxxxxxxxxxxxxxxxxxxxxxxxxxxxxxxxxxxxxxxxxxxxxxxxxxxxxxxxxxxxxxxxxx||--------------------------(7)------------------------------------(7)||---------------------------8--------------------------------------8-||---------------------------8--------------------------------------8-||---------------------------6-----------(Play 2 Times)-------------6-|
|xxxxxxxxxxxxxx||xxxxxxxxxxxxxx||xxxxxxxxxxxxxx| (Play 4 Times)|8-8-8-8-8-8--8||8-8-8-8-8-8--6||6-6-6-6-6-6--x|
|xxxx||xxxx||xxxx| (Play 9 Times)|6--8||6--8||4--6|
|-----------------(Play 3 Times)----||-----------------------------------||-----------------------------------||11-11-11-11-11-11-11-11-11-11--6--8||11-11-11-11-11-11-11-11-11-11--6--8||9--9--9--9--9--9--9--9--9--9---4--6|
|xxxxxxxxxxxxxxxxxxxxxxxxxxxxxxxxxxxxxxxxxxxxxxxxxxxxxxxxxxxxxxxxxxxx||xxxxxxxxxxxxxxxxxxxxxxxxxxxxxxxxxxxxxxxxxxxxxxxxxxxxxxxxxxxxxxxxxxxx||--------------------------(7)------------------------------------(7)||---------------------------8--------------------------------------8-||---------------------------8--------------------------------------8-||---------------------------6--------------------------------------6-|
|xxxxxxxxxxxxxx||xxxxxxxxxxxxxx||xxxxxxxxxxxxxx| (Play 4 Times)|8-8-8-8-8-8--8||8-8-8-8-8-8--6||6-6-6-6-6-6--x|
|xxxxxxxxxxxxxxxxxxxxxxxxxxxxxxxxxxxxxxxxxxxxxxxxxxxxxxxxxxxxxxxxxxxx||xxxxxxxxxxxxxxxxxxxxxxxxxxxxxxxxxxxxxxxxxxxxxxxxxxxxxxxxxxxxxxxxxxxx||--------------------------(7)------------------------------------(7)||---------------------------8--------------------------------------8-||---------------------------8--------------------------------------8-||---------------------------6-----------(Play 2 Times)-------------6-|
|xxxxxxxxxxxxxx||xxxxxxxxxxxxxx||xxxxxxxxxxxxxx| (Play 4 Times)|8-8-8-8-8-8--8||8-8-8-8-8-8--6||6-6-6-6-6-6--x|
|xxxx||xxxx||xxxx| (Play 9 Times)|6--8||6--8||4--6|
|----------------(Play 3 Times)-----||-----------------------------------||-----------------------------------||11-11-11-11-11-11-11-11-11-11--6--8||11-11-11-11-11-11-11-11-11-11--6--8||9--9--9--9--9--9--9--9--9--9---4--6|
e|-----------------| |-----(Play 10 Times)|B|-----------------| |--------------------|G|-----------------|then|--------------------|D|----------6h8-8--| |6/8------------6h8-8|A|----4h6/8--------| |6/8------4/6h8------|E|4h6--------------| |4/6--4/6------------|
---------------------------------------------------------------------------- 10. Tales from the Forest of Gnomes
Intro|--------------------------------------------------3-2--0-------||--------2--------3-2---0------------0--------------------------||------------2--------------(0)-----------0---------------------||----------------------------------------------------------(0)--||--0------------------------------------------------------------||---------------------------------------------------------------|
|---2--------------3-2---0--------------(Play 3 Times)---------||---------3------------------------2---------------------------||--------------------------------------------------------------||--------------------------------------------------------------||---------------------------(0)--------------------------------||--------------------------------------------------------------|
Bridge|-------12----------12-----------||-------10----------10-----------||-------9-----------9------------||-------0-----------0------------||--------------------------------||---------------(Play 6 Times)---|
Verse|--------------------------------------------------3-2--0-------||--------2--------3-2---0------------0--------------------------||------------2--------------(0)-----------0---------------------||----------------------------------------------------------(0)--||--0------------------------------------------------------------||---------------------------------------------------------------|
|---2--------------3-2---0--------------(Play 2 Times)---------||---------3------------------------2---------------------------||--------------------------------------------------------------||--------------------------------------------------------------||---------------------------(0)--------------------------------||--------------------------------------------------------------|
Chorus|-----------------------------------------------------------------||-------14-15-17--15--14h15p14----------12-13-15--13--12h13p12----||------------------------------14------------------------------12-||--7--------------------------------5-----------------------------||--7--------------------------------5-----------------------------||--5--------------------------------3-----------------------------|
|------14-15-17--15--14h15p14-----------------------------------||-----------------------------15--------14-15-17--15-14-15-14---||--7------------------------------------------------------------||--7--------------------------------7---------------------------||--5--------------------------------7---------------------------||-----------------------------------5-------(Play 4 Times)------|
Bridge|-------12----------12-----------||-------10----------10-----------||-------9-----------9------------||-------0-----------0------------||--------------------------------||---------------(Play 6 Times)---|
Verse|--------------------------------------------------3-2--0-------||--------2--------3-2---0------------0--------------------------||------------2--------------(0)-----------0---------------------||----------------------------------------------------------(0)--||--0------------------------------------------------------------||---------------------------------------------------------------|
|---2--------------3-2---0--------------(Play 2 Times)---------||---------3------------------------2---------------------------||--------------------------------------------------------------||--------------------------------------------------------------||---------------------------(0)--------------------------------||--------------------------------------------------------------|
Chorus|-----------------------------------------------------------------||-------14-15-17--15--14h15p14----------12-13-15--13--12h13p12----||------------------------------14------------------------------12-||--7--------------------------------5-----------------------------||--7--------------------------------5-----------------------------||--5--------------------------------3-----------------------------|
|------14-15-17--15--14h15p14-----------------------------------||-----------------------------15--------14-15-17--15-14-15-14---||--7------------------------------------------------------------||--7--------------------------------7---------------------------||--5--------------------------------7---------------------------||-----------------------------------5-------(Play 4 Times)------|
Ending|-------12----------12-----------||-------10----------10-----------||-------9-----------9------------||-------0-----------0------------||--------------------------------||---------------(Play 6 Times)---|
---------------------------------------------------------------------------- 11. Witchcraft
Intro|---------(Play 4 Times)---||--------------------------||--------------------------||--------5-----------------||--7-5-7---7-5-------------||--------------5-5-3h5-3-0-|
Verse|-------------------------------------------------------||-------------------------------------------------------||-------------------------------------------------------||--------------------------------------5----------------||7-------------------------------7-5-7---7-5------------||--------------------------------------------5-5-3h5-3-0|
Pre-chorus|-------------------------------------------------------||-------------------------------------------------------||-------5------------5------------4-----------7---------||-------5------------5------------4-----------7---------||-------3------------3------------2-----------5---------||-------------------------------------------------------|
Chorus|---------------------------(Play 2 Times)--------------||-------------------------------------------------------||----------------9-----------11-----------13------------||-------11-------9---11------11--11-------13--11--------||-------11-------7---11-------9--11-------11--11--------||--------9------------9-----------9------------9--------|
|-7-7-7-7-6-6--7-7-7-7-6-6--7-7-7-7-6-6--7-7-7-7-6-6----||-------------------------------------------------------||-------------------------------------------------------||-------------------------------------------------------||-------------------------------------------------------||-------------------------------------------------------|
|--------------------------||--------------------------||--------------------------||--------5-----------------||--7-5-7---7-5-------------||--------------5-5-3h5-3-0-|
Verse|-------------------------------------------------------||-------------------------------------------------------||-------------------------------------------------------||--------------------------------------5----------------||7-------------------------------7-5-7---7-5------------||--------------------------------------------5-5-3h5-3-0|
Pre-chorus|-------------------------------------------------------||-------------------------------------------------------||-------5------------5------------4-----------7---------||-------5------------5------------4-----------7---------||-------3------------3------------2-----------5---------||-------------------------------------------------------|
Chorus|---------------------------(Play 2 Times)--------------||-------------------------------------------------------||----------------9-----------11-----------13------------||-------11-------9---11------11--11-------13--11--------||-------11-------7---11-------9--11-------11--11--------||--------9------------9-----------9------------9--------|
|-7-7-7-7-6-6--7-7-7-7-6-6--7-7-7-7-6-6--7-7-7-7-6-6----||-------------------------------------------------------||-------------------------------------------------------||-------------------------------------------------------||-------------------------------------------------------||-------------------------------------------------------|
|-------------------------------------------------------||-------------------------------------------------------||-------------------------------------------------------||------9---------------------9--------------------------||------9---------------------9--------------------------||------7---------------------7--------------------------|
|--------------------------||--------------------------||--------------------------||--------5-----------------||--7-5-7---7-5-------------||--------------5-5-3h5-3-0-|
Pre-chorus|-------------------------------------------------------||-------------------------------------------------------||-------5------------5------------4-----------7---------||-------5------------5------------4-----------7---------||-------3------------3------------2-----------5---------||-------------------------------------------------------|
Chorus|---------------------------(Play 2 Times)--------------||-------------------------------------------------------||----------------9-----------11-----------13------------||-------11-------9---11------11--11-------13--11--------||-------11-------7---11-------9--11-------11--11--------||--------9------------9-----------9------------9--------|
|-7-7-7-7-6-6--7-7-7-7-6-6--7-7-7-7-6-6--7-7-7-7-6-6----||-------------------------------------------------------||-------------------------------------------------------||-------------------------------------------------------||-------------------------------------------------------||-------------------------------------------------------|
Ending|----------(Play 4 Times)--||--------------------------||--------------------------||--------5-----------------||--7-5-7---7-5-------------||--------------5-5-3h5-3-0-|
---------------------------------------------------------------------------- 12. Vagabond A Oh girl, I donít know all the reasons why I found the answer, looking in your eye I go out walking, all day long Take away this lonely man, soon he will be gone G D A Cause Iíll tell you everything about living free G Yes I can see you girl D A Can you see me? A You donít need to know what I do all day Itís as much as I know Watch it waste away G D A Cause Iíll tell you everything about living free G Yes I can see you girl D A Can you see me? A Go and see the sorcerer, look into the ball You may find the answer, written on the wall G Look at whatís inside her D Can you see the answer? A Put her on a mansion on top of a hill Please donít make her do the things against her will I found something special I donít know why Looking into her pretty little eye G D A Cause Iíll tell you everything about living free
Tap to rate this tab
 
# A B C D E F G H I J K L M N O P Q R S T U V W X Y Z