Wretched - A Preservation Of Immortality tab

---------------------------------------------------------------------------|---------------------------------------------------------------------------|---------------------------------------------------------------------------|-------8888----------8888-----7777-----------8888-----7777-----------8888--|-6--5-------6--5--6--------6--------6--5--6--------6--------6--5--6--------|-5--4-------5--4--5--------4--------5--4--5--------5--------5--4--5--------| . . . . . . . . . . . . .
---------------------------------------------------------------------------|---------------------------------------------------------------------------|---------------------------------------------------------------------------|---------8888-----7777-----------8888--------------8888-----------8888-----|6--5--6--------6--------6--5--6--------6--5--6--5--------6--5--6--------6--|5--4--5--------5--------5--4--5--------5--4--5--4--------5--4--5--------5--|. . . . . . . . . . . . . . .
---------------------------------------------------------------------------|---------------------------------------------------------------------------|---------------------------------------------------------------------------|7777-----------8888-----7777-----------8888-----------8888-----7777--------|------6--5--6--------6--------6--5--6--------6--5--6--------6--------6--5--|------5--4--5--------5--------5--4--5--------5--4--5--------5--------5--4--| . . . . . . . . . . . . .
----------------------------------------------------------------------------|----------------------------------------------------------------------------|----------------------------------------------------------------------------|---8888-------------8888-----------8888-----7777-----------8888-----7777----|6-------6--5--6--5--------6--5--6--------6--------6--5--6--------6--------6-|5-------5--4--5--4--------5--4--5--------5--------5--4--5--------5--------5-|. . . . . . . . . . . . . .
------------------------------------------------------------|------------------------------------------------------------|------------------------------------------------------------|--------8888-----------8888-----7777-----------8888---------|--5--6--------6--5--6--------6--------6--5--6--------6--5---|--4--5--------5--4--5--------5--------5--4--5--------5--4---| . . . . . . . . . . .
----------------------------------|----------------------------------|----------------------------------|--8---8-------5---4-----5------4--|x2--5---6-------3---0-----1------0--|--5---5-------1---0-----1------0--|
----------------------------------------|----------------------------------------|----------------------------------------|-----8----7--8---8---7--8---7--5--4--5--|----------------------------------------|555----5-------5---5------5-------------|... . . . .
----------------------------------------|----------------------------------------|----------------------------------------|--8-----7--8---7--8---7--5--4-----------|-------------------------------6--5--3--|-----5-------5------5-------------------| . . .
----------------------------------------|----------------------------------------|----------------------------------------|-----5---4--5---5---4--5---4--1--0--1---|----------------------------------------|111----1------1---1------1--------------|... . . . .
--------------------------------------------|--------------------------------------------|--------------------------------------------|--5---4--5---5---4--0--1--0-----0-----------|-----------------------------3-----3--1--0--|----1------1---1----------------------------| . . .
-----------------------------------|-----------------------------------|-----------------------------------|-----------------------------------|------------------------0---3---0--|----4---1---0---1---4--------------|
----------------------------------------|----------------------------------------|----------------------------------------|-----8----7--8---8---7--8---7--5--4--5--|----------------------------------------|555----5-------5---5------5-------------|... . . . .
----------------------------------------|----------------------------------------|----------------------------------------|--8-----7--8---7--8---7--5--4-----------|-------------------------------6--5--3--|-----5-------5------5-------------------| . . .
----------------------------------------|----------------------------------------|----------------------------------------|-----5---4--5---5---4--5---4--1--0--1---|----------------------------------------|111----1------1---1------1--------------|... . . . .
--------------------------------------------|--------------------------------------------|--------------------------------------------|--5---4--5---5---4--0--1--0-----0-----------|-----------------------------3-----3--1--0--|----1------1---1----------------------------| . . .
-----------------------------------|-----------------------------------|-----------------------------------|-----------------------------------|------------------------0---3---0--|----4---1---0---1---4--------------|
-----------------------------------------------|-----------------------------------------------|-----------------------------------------------|-------------------------------10--7-----------|-----------6------9--6------6---------9--6--9--|----7--10-----10--------10---------------------|
------------------------------------|------------------------------------|------------------------------------|------------------------------------|--55551111----------------6----9-6--|----------555555555--7-10---10------|
---------------------------------|---------------------------------|---------------------------------|---------------------------------|--33330000-----------5-5-5-6--5--|----------444444444--4-4-4-5--4--| . . . . .
------------------------------------|------------------------------------|------------------------------------|------------------------------------|--55551111----------------6----9-6--|----------555555555--7-10---10------|
-----------------------------------------------|-----------------------------------------------|-----------------------------------------------|-------------------------------10--7-----------|-----------6------9--6------6---------9--6--9--|----7--10-----10--------10---------------------|
------------------------------------|------------------------------------|------------------------------------|------------------------------------|--55551111----------------6----9-6--|----------555555555--7-10---10------|
---------------------------------|---------------------------------|---------------------------------|---------------------------------|--33330000-----------5-5-5-6--5--|----------444444444--4-4-4-5--4--| . . . . .
------------------------------------|------------------------------------|------------------------------------|------------------------------------|--55551111----------------6----9-6--|----------555555555--7-10---10------|
-----------------------------------------------|-----------------------------------------------|-----------------------------------------------|-------------------------------10--7-----------|-----------6------9--6------6---------9--6--9--|----7--10-----10--------10---------------------|
-----------------------------------------------|-----------------------------------------------|-----------------------------------------------|--------------------------------------------4--|--5--------------------------5-------6---------|-----------------------------------------------|
-----------------------------------------------|-----------------------------------------------|-----------------------------------------------|--5---------4------------4h-5p-4---------4--4--|---------------------------------6-------------|-----------------------------------------------| . .
------------------------------------|------------------------------------|------------------------------------|------------------------------4444--|--5555555555555555555555556666------|------------------------------------| ................................
--------------------------------|--------------------------------|--------------------------------|--5555555555554444--------------|------------------666666666666--| ............................
------------------------------------|------------------------------------|------------------------------------|------------------------------4444--|--5555555555555555555555556666------|------------------------------------| ................................
--------------------------------|--------------------------------|--------------------------------|--5555555555554444--------------|------------------666666666666--| ............................
------------------------------------|------------------------------------|------------------------------------|------------------------------4444--|--5555555555555555555555556666------|------------------------------------| ................................
--------------------------------|--------------------------------|--------------------------------|--5555555555554444--------------|------------------666666666666--| ............................
------------------------------------|------------------------------------|------------------------------------|------------------------------4444--|--5555555555555555555555556666------|------------------------------------| ................................
--------------------------------|--------------------------------|--------------------------------|--5555555555554444--------------|------------------666666666666--| ............................
-------------------------------------------------------|-------------------------------------------------------|-------------------------------------------------------|-------------------------------------------------------|--6-6-6-6-6-6-6-6-6-6-6----5-5-5-5-5-5-5-5----3-3-3-3--|--5-5-5-5-5-5-5-5-5-5-5----4-4-4-4-4-4-4-4----1-1-1-1--| . . . . . . . . . . . . . . . . . . . . . . .
-------------------------------------------------------|-------------------------------------------------------|-------------------------------------------------------|-------------------------------------------------------|--6-6-6-6-6-6-6-6-6-6-6----5-5-5-5-5-5-5-5----3-3-3-3--|--5-5-5-5-5-5-5-5-5-5-5----4-4-4-4-4-4-4-4----1-1-1-1--| . . . . . . . . . . . . . . . . . . . . . . .
---------------------------------------------|---------------------------------------------|---------------------------------------------|---------------------------------------------|--1-1-1-1-1-1-1----0-0-0-0----0-0-0-0-0-0-0--|--0-0-0-0-0-0-0----0-0-0-0----0-0-0-0-0-0-0--| . . . . . . . . . . . . . . . . . .
---------------------------------------------------------------|---------------------------------------------------------------|--------------------------------------------------------14-17--|--------------------------------------------13----13-16--------|--------------------17----12-13-13-12-13-15--------------------|--13-15-15-13-15-16--------------------------------------------| . . . . . . . . . . . . . .
---------------------------------------------|---------------------------------------------|---------------------------------------------|---------------------------------------------|--1-1-1-1-1-1-1----0-0-0-0----0-0-0-0-0-0-0--|--0-0-0-0-0-0-0----0-0-0-0----0-0-0-0-0-0-0--| . . . . . . . . . . . . . . . . . .
-------------------------------------------------------|-------------------------------------------------------|-------------------------------------------------------|-------------------------------------------------------|--6-6-6-6-6-6-6-6-6-6-6----5-5-5-5-5-5-5-5----3-3-3-3--|--5-5-5-5-5-5-5-5-5-5-5----4-4-4-4-4-4-4-4----1-1-1-1--| . . . . . . . . . . . . . . . . . . . . . . .
---------------------------------------------|---------------------------------------------|---------------------------------------------|---------------------------------------------|--1-1-1-1-1-1-1----0-0-0-0----0-0-0-0-0-0-0--|--0-0-0-0-0-0-0----0-0-0-0----0-0-0-0-0-0-0--| . . . . . . . . . . . . . . . . . .
---------------------------------------------------------------|---------------------------------------------------------------|--------------------------------------------------------14-17--|--------------------------------------------13----13-16--------|--------------------17----12-13-13-12-13-15--------------------|--13-15-15-13-15-16--------------------------------------------| . . . . . . . . . . . . . .
---------------------------------------------|---------------------------------------------|---------------------------------------------|---------------------------------------------|--1-1-1-1-1-1-1----0-0-0-0----0-0-0-0-0-0-0--|--0-0-0-0-0-0-0----0-0-0-0----0-0-0-0-0-0-0--| . . . . . . . . . . . . . . . . . .
-------------------------------------------------------|-------------------------------------------------------|-------------------------------------------------------|-------------------------------------------------------|--6-6-6-6-6-6-6-6-6-6-6----5-5-5-5-5-5-5-5----3-3-3-3--|--5-5-5-5-5-5-5-5-5-5-5----4-4-4-4-4-4-4-4----1-1-1-1--| . . . . . . . . . . . . . . . . . . . . . . .
-------------------------------------------------------|-------------------------------------------------------|-------------------------------------------------------|-------------------------------------------------------|--6-6-6-6-6-6-6-6-6-6-6----5-5-5-5-5-5-5-5----3-3-3-3--|--5-5-5-5-5-5-5-5-5-5-5----4-4-4-4-4-4-4-4----1-1-1-1--| . . . . . . . . . . . . . . . . . . . . . . .
------------------------------------------|------------------------------------------|------------------------------------------|--8---------------8--7--8------7-------7--|--5---------5--6---------------5-------9--|--5----------------------------4-------7--| . .
-------------------------------------------|-------------------------------------------|-------------------------------------------|--5--------5----5--------------------------|--6--------6----6-------------9--------10--|--5--------5----5-------------7--------8---|
---------------------------------------------|---------------------------------------------|---------------------------------------------|------------------------------------8--------|--6--------6p5-----6--------6p5--------------|-----5--5-------5-----5--5-------5-----5--5--| . . . . . . . .
---------------------------------------------|---------------------------------------------|---------------------------------------------|------------------------------------8--------|--6--------6p5-----6--------6p5--------------|-----5--5-------5-----5--5-------5-----5--5--| . . . . . . . .
---------------------------------------------|---------------------------------------------|---------------------------------------------|------------------------------------7--------|--5--------5p3-----5--------5p3--------------|-----1--1-------1-----1--1-------1-----1--1--| . . . . . . .
---------------------------------------------|---------------------------------------------|---------------------------------------------|------------------------------------7--------|--5--------5p3-----5--------5p3--------------|-----1--1-------1-----1--1-------1-----1--1--| . . . . . . .
---------------------------------------------|---------------------------------------------|---------------------------------------------|------------------------------------8--------|--6--------6p5-----6--------6p5--------------|-----5--5-------5-----5--5-------5-----5--5--| . . . . . . . .
---------------------------------------------|---------------------------------------------|---------------------------------------------|------------------------------------8--------|--6--------6p5-----6--------6p5--------------|-----5--5-------5-----5--5-------5-----5--5--| . . . . . . . .
---------------------------------------------|---------------------------------------------|---------------------------------------------|------------------------------------7--------|--5--------5p3-----5--------5p3--------------|-----1--1-------1-----1--1-------1-----1--1--| . . . . . . .
---------------------------------------------|---------------------------------------------|---------------------------------------------|------------------------------------7--------|--5--------5p3-----5--------5p3--------------|-----1--1-------1-----1--1-------1-----1--1--| . . . . . . .
---------------------------------------------|---------------------------------------------|---------------------------------------------|------------------------------------8--------|--6--------6p5-----6--------6p5--------------|-----5--5-------5-----5--5-------5-----5--5--| . . . . . . . .
---------------------------------------------|---------------------------------------------|---------------------------------------------|------------------------------------8--------|--6--------6p5-----6--------6p5--------------|-----5--5-------5-----5--5-------5-----5--5--| . . . . . . . .
---------------------------------------------|---------------------------------------------|---------------------------------------------|------------------------------------7--------|--5--------5p3-----5--------5p3--------------|-----1--1-------1-----1--1-------1-----1--1--| . . . . . . .
---------------------------------------------|---------------------------------------------|---------------------------------------------|------------------------------------7--------|--5--------5p3-----5--------5p3--------------|-----1--1-------1-----1--1-------1-----1--1--| . . . . . . .
---------------------------------------------|---------------------------------------------|---------------------------------------------|------------------------------------8--------|--6--------6p5-----6--------6p5--------------|-----5--5-------5-----5--5-------5-----5--5--| . . . . . . . .
---------------------------------------------|---------------------------------------------|---------------------------------------------|------------------------------------7--------|--5--------5p3-----5--------5p3--------------|-----1--1-------1-----1--1-------1-----1--1--| . . . . . . .
---------------------------------------------|---------------------------11--8----11---12--|---------------------------------------------|---------------------------9---6----9----10--|--5--------5p3-----5-------------------------|-----1--1-------1----------------------------| . . .
------------------------------------|------------------------------------|------------------------------------|------------------------------------|--55551111----------------6----9-6--|----------555555555--7-10---10------|
---------------------------------|---------------------------------|---------------------------------|---------------------------------|--33330000-----------5-5-5-6--5--|----------444444444--4-4-4-5--4--| . . . . .
------------------------------------|------------------------------------|------------------------------------|------------------------------------|--55551111----------------6----9-6--|----------555555555--7-10---10------|
-----------------------------------------------|-----------------------------------------------|-----------------------------------------------|-------------------------------10--7-----------|-----------6------9--6------6---------9--6--9--|----7--10-----10--------10---------------------|
---------------------------------|---------------------------------|---------------------------------|---------------------------------|--33330000-----------5-5-5-6--5--|----------444444444--4-4-4-5--4--| . . . . .
------------------------------------|------------------------------------|------------------------------------|------------------------------------|--55551111----------------6----9-6--|----------555555555--7-10---10------|
-----------------------------------------------|-----------------------------------------------|-----------------------------------------------|-------------------------------10--7-----------|-----------6------9--6------6---------9--6--9--|----7--10-----10--------10---------------------|
------------------------------------|------------------------------------|------------------------------------|------------------------------4444--|--5555555555555555555555556666------|------------------------------------| ................................
--------------------------------|--------------------------------|--------------------------------|--5555555555554444--------------|------------------666666666666--| ............................
----------------------------------------------|----------------------------------------------|----------------------------------------------|--77775--4-----4--5--4--77775--4-----4--5--4--|------------6---------------------6-----------|----------------------------------------------| .... ....
--------------------------------------------|--------------------------------------------|--------------------------------------------|--88885--4-----4--5--4--------7------7--10--|------------6-----------6--9-------9--------|--------------------------------------------| ....
------------------------------------|------------------------------------|------------------------------------|------------------------------4444--|--5555555555555555555555556666------|------------------------------------| ................................
--------------------------------------|--------------------------------------|--------------------------------------|--5555555555554444--------------------|------------------555555666666666666--| ..................................
----------------------------------------------|----------------------------------------------|----------------------------------------------|--77775--4-----4--5--4--77775--4-----4--5--4--|------------6---------------------6-----------|----------------------------------------------| .... ....
--------------------------------------------|--------------------------------------------|--------------------------------------------|--88885--4-----4--5--4--------7------7--10--|------------6-----------6--9-------9--------|--------------------------------------------| ....
------------------0---0- .
-------------------------------------------------|-------------------------------------------------|-------------------------------------------------|------------5--4--7-----7------------------------|--000--000-----------------9--6--9--6------6--5--|--000--000-----------0-----------------10--------| ... ... .
-----------------------------------|-----------------------------------|-----------------------------------|-----------------------------------|--000-000-----333------------------|--000-000-555-----777-888-555-111--| ... ... ... ... ... ... ... ...
---------------------------------------------------|---------------------------------------------------|--------------------------------------8-----8--11--|------------5--4--7-----7--10-----10---------------|--000--000-----------------------------------------|--000--000-----------0---------0---------0---------| ... ... . . .
-----------------------------------|-----------------------------------|-----------------------------------|-----------------------------------|--000-000-----333------------------|--000-000-555-----777-888-555-111--| ... ... ... ... ... ... ... ...
------------------------------------------|--10--------------------------------------|-----11-8-11-8----8----8------------------|---------------10---10---10-7-10-7--------|-----------------------------------9-6-9--|------------------------------------------|
-------------------------------------------------|-------------------------------------------------|-------------------------------------------------|------------5--4--7-----7------------------------|--000--000-----------------9--6--9--6------6--5--|--000--000-----------0-----------------10--------| ... ... .
-----------------------------------|-----------------------------------|-----------------------------------|-----------------------------------|--000-000-----333------------------|--000-000-555-----777-888-555-111--| ... ... ... ... ... ... ... ...
---------------------------------------------------|---------------------------------------------------|--------------------------------------8-----8--11--|------------5--4--7-----7--10-----10---------------|--000--000-----------------------------------------|--000--000-----------0---------0---------0---------| ... ... . . .
------------------------------------------|--10--------------------------------------|-----11-8-11-8----8----8------------------|---------------10---10---10-7-10-7--------|-----------------------------------9-6-9--|------------------------------------------|
----------------------------------------------------------|----------------------------------------------------------|----------------------------------------------------------|--------8888----------8888-----7777-----------8888--------|--6--5-------6--5--6--------6--------6--5--6--------6--5--|--5--4-------5--4--5--------4--------5--4--5--------5--4--| . . . . . . . . . . .
Tap to rate this tab
 
# A B C D E F G H I J K L M N O P Q R S T U V W X Y Z