X Japan - Unfinished tab

X JAPAN - UNFINISHED (CLASSIC GUITAR)

Classic guitar arrange from cd "X Japan On Guitar"


/  slide up
\  slide down
h  hammer-on
p  pull-off
*  harmonic

^  downstroke
l
l

Tuning: E,A,D,G,B,E

Roadmap:Intro,A,B,C,B,End


Intro

||-------------0--2--3--|-----------------2--|-3--5--2------------|||----------------------|-1------------1-----|--------------------|||-/4-------4-----------|--------------------|--------------------|||----------------------|--------------------|--------------------|||----------------------|--------------------|--------------------|||----------------------|--------------------|--------------------|
|-3--2-2h3------------|-2--------------3--|--------0-------0-2----------2-||---------------------|-------------------|------0-------0---3--------3---||---------------------|----------------0--|----0-------0------------2-----||---------------------|-------------------|--2-------2-------0----0-------||---------------------|----------------3--|-------------------------------||---------------------|-------------------|-------------------------------|
|-0-----0---2---3---5---3---2---|-0----------0-2----------2-||-----0---0---0---0---0---0---0-|----------0---3--------3---||-------------------------------|-0------0------------2-----||-2-----------------------------|------2-------0----0-------||-------------------------------|-3-------------------------||-0-----------------------------|---------------------------|
|-0------------0-----0-12*------12*-|||------------0-----0---------12*----|||-----0----0-----0--------12*-------|||-2-----4---------------------------|||-----------------------------------|||-0---------------------------------||
A
||----------3-3-2--------0-2-|-3-----7-----5-----3-----|||-------0------------3------|-5-----8-----7-----5-----|||----0------------2---------|----0-----0-----0-----0--|||--------------0------------|-------------------------|||-3-------------------------|-------------------------|||---------------------------|-0-----------------------|
|----------3--2--------0-2-|-3p2-3---------7---5---3--||-------0-----------3------|-0-----------0-8---7---5--||----0-----------2---------|-0---------0--------------||-------------0------------|---------2----------------||-3------------------------|--------------------------||--------------------------|-0------------------------|
|-0--------3--2--------0-2-|-3-----7-----5-----2-----||-1-----------3-----3------|-5-----8-----7-----3-----||-------0--------2---------|----0-----0-----0-----0--||----2--------0------------|-------------------------||-3------------------------|-------------------------||--------------------------|-0-----------------------|
|----------3--2--------0-2-|-3-----------------------||-------0-----------3------|-0-----0-----0-----0-----||----0-----------2---------|-0-----0-----0-----0-----||-------------0------------|----2-----2-----2-----2--||-3------------------------|-------------------------||--------------------------|-0-----------------------|
|---------3--3-2--------0-2-|-3-----------7---5---3--||--------------3-----3------|-0-----0-----8---7---5--||-------0---------2---------|-0-----0----------------||----2---------0------------|----2-----2-------------||-3-------------------------|------------------------||---------------------------|-0----------------------|
|-0--------2h3-2--------0-2-|-3--------0-----------2--|||-1------------3-----3------|-------0-----------3-----|||-------0---------2---------|----0-----------2--------|||----2---------0------------|-------------0-----------|||-3-------------------------|-------------------------|||---------------------------|-0-----------------------||
|----------7-5-7-----7--5--3--|||-------0------8--------------|||-------0---------------------|||----0-------------9----------|||-----------------------------|||-3---------------------------||
B
||-2-----------------0--2-3-|-------------------0--3--|||-------0-----0------------|----------1-----1--------|||-------2-----2------------|-------0--------0--------|||----1-----1-----1---------|----2--------------------|||-2------------------------|-3-----------3-----------|||--------------------------|-------------------------|
|-7----5----3--3--2--2-3-|----------------------3--||-8----7---------------3-|----------------0--3-----||-0----------------------|-------0-----0-----------||------------------------|----0-----0--------------||------------------------|-------------------------||------------------------|-3-----------------------|
|-2-----0-----------0--2-3-|-------------------7--------||-------0-----4------------|----------0--------8-10--8--||-------------4------------|-------0--------0--9--------||----4-----4-----4---------|----2--------0--------------||-2------------------------|-3--------------------------||--------------------------|----------------------------|
|-5-----------7^-----7-7-|-7^---------------0-2-|-3----------------------||-7-----7-----7l---------|-8l-----8--7----------|-5-----------3---1---0--||----7-----7--8l---------|-9l-----9--7----------|-------4-----4---2---0--||-0-----------9l---------|-----------0----------|----5-----5-------------||-------------9l---------|----------------------|------------------------||-------------7l---------|----------------------|-0----------------------|
|----------3-3-2--------0-2-|-3p2-0-------7---5---3--||-------1--3---3-----3------|-0-----------8---7---5--||----0------------2---------|-0--------0-------------||--------------0------------|------------------------||-3-------------------------|------------------------||---------------------------|-0----------------------|
|-0--------3--2--------0-2-|-3----2^---0^-------|-2^---2----3----5----|||-1--------5--3-----3------|-1----3l---1l-------|-3l---3----5----7----|||-------0--------2---------|-0----2l---0l-------|-2l------------------|||----2--------0------------|------0l---2l-------|-0l------------------|||-3------------------------|-----------3l-------|---------------------|||--------------------------|-0------------------|---------------------||
C
|-3--------7--7---5---3--|-5---3-------------------2-3-||----------8--8---7---5--|-7---5-----0-----------5-----||-0-----0-----0----------|---------0-----------4-------||----0-------------------|-----------------2/5---------||-3----------------------|---------------2-------------||------------------------|-0-----------0---------------|
|-2---0--------------0--7--|-7----------------------||-3-------3--------1----8--|-5-----5----------------||----------------0---------|----5-----5-------------||-0------------2-----------|-0-----------0---2---4--||------------0-------------|-------------2---3---5--||--------------------------|------------------------|
|-0-----------0-2-3---5---3---2---|-0-------0-----0---------0-----0-||-----------4-------0---0---0---0-|-------0-----0---------0-----0---||---------3-----------------------|-----0-----0---------0-----0-----||-----2/4-------------------------|---2---------------2-------------||---2-----------------------------|-3---------------4---------------||-0-------------------------------|---------------------------------|
|---------2-----7^---8----|-7-----------7---5---3--||-----3---------7l--------|------------------------||---2---2-------8l--------|------------------------||-0-------------9l--------|----------9-------------||---------------9l--------|----7--10---------------||---------------7l--------|-0----------------------|
|-2--------------------2-3-|-5-----------5---3---2--||-------0-----------0------|-7-----7----------------||----2-----2-----2---------|----7-------------------||-1------------------------|-0--------7-------------||-------------2------------|------------------------||--------------------------|------------------------|
|-3----3-----2--------7-7-|-7-----------7---5---3--||------1------------------|-8-----8--0--8---7---5--||---0-----0--------2------|----0-----0-------------||---------------1---------|------------------------||-3----------2------------|------------------------||-------------------------|-0----------------------|
|-2-----------------0--2-3-|-------0--2-3----3--3-2-3--||-3-----3------------------|--------------------5-3-5--||----2-----2-----2---------|----0----------------------||-0-----------0------------|---------------------------||--------------------------|-3------------0------------||--------------------------|---------------------------|
|-5--------------2-----|-2^------------------||-7--------------3-----|-0l------------------||-------------2-----2--|-2l----------------2-||-0--------0-----------|-1l--------------1---||----------------------|-2l-----------2------||----------------------|---------------------|
|----2---7----5---3---2--0-----|---------2-7---------|--------7--5--3--2---||-0---------0---0---0------4--|-------0-------------|---------------------||------------------------------|-----2---------------|---------------------||------------------------------|---1-----------------|---------------------||------------------------------|-2-------------------|---------------------||------------------------------|---------------------|---------------------|
|-3--------3-3-2--------0-2-|-3--------------------12*-||-------1------------3------|-------0-----------12*----||-------0---------2---------|----0-----0-----12*-------||----2---------0------------|--------------------------||-3-------------------------|--------------------------||---------------------------|-0-----------0------------|
|----------3--2--------0-2-|-3p2-3---------7---5---3--||-------0-----------3------|-0-----------0-8---7---5--||----0-----------2---------|-0---------0--------------||-------------0------------|---------2----------------||-3------------------------|--------------------------||--------------------------|-0------------------------|
|-0--------3--2--------0-2-|-3-----7-----5-----2-----||-1-----------3-----3------|-5-----8-----7-----3-----||-------0--------2---------|----0-----0-----0-----0--||----2--------0------------|-------------------------||-3------------------------|-------------------------||--------------------------|-0-----------------------|
|----------3--2--------0-2-|-3-----------------------||-------0-----------3------|-0-----0-----0-----0-----||----0-----------2---------|-0-----0-----0-----0-----||-------------0------------|----2-----2-----2--------||-3------------------------|-------------------------||--------------------------|-0--------------------2--|
|----------7-5-7-----7--5--3--|||-------0------8--------------|||-------0---------------------|||----0-------------9----------|||-----------------------------|||-3---------------------------||
End
|-3^--------3-2^---------2-|-0^----0---2---3---5---3---2---||-0l------0---3l-------3---|-0l--0---0---0---0---0---0---0-||-0l----0-----2l-----2-----|-0l----------------------------||-2l----------0l---0-------|-2l----------------------------||-3l-----------------------|-2l----------------------------||--------------------------|-------------------------------|
|-0^---------0-2-------0-2-3-|-5--7---------------||-0l-------0---3-----3-------|--------------------||-0l-----0--------2----------|--------------------||-2l---2-------0-------------|--------------------||-3l-------------------------|--------------------||----------------------------|-----------0--------|
|-----12*---12*---12*---12*---12*-------|-7*---------------||-12*----12*---12*---12*---12*---12*----|-7*---------------||---------------------------------------|------------------||---------------------------------------|------------------||---------------------------------------|------------------||---------------------------------------|------------------|
Thanks for reading my tab! abigcupofcoffee@hotmail.com
Tap to rate this tab
 
# A B C D E F G H I J K L M N O P Q R S T U V W X Y Z