X - Beyond And Back tab

this tab is nowhere to be found on the internet so here it is 
by the way it took me a really long time to figure out the beginning


"Beyond & Back"

from the album "WILD GIFT"


|---------------------------------------------------||---------------------------------------------------||---------------------------------------------------||---------------2-----2-----2---------2-----2-----2-||------------------2-----4--2------------2-----4--2-||---12\--0--3h4----------------0--3h4---------------|
|---------------------------------------||-------------12-12\--------------------||-------------12-12\-----------9-9-9-9--||-------------12-12\--9--9--9--9-9-9-9--||---7--7--7-----------7--7--7--7-7-7-7--||---0--0--0-----------------------------|
i'll go somewhere else, i'll move to the couch
|---------------------------------------||------------12-12\---------------------||------------12-12\-------------9-9-9-9-||--9--9--9---12-12\----9--9--9--9-9-9-9-||--7--7--7-------------7--7--7--7-7-7-7-||---------------------------------------|
pm. . . . . . . . .. . . . . . . . . . . its darker in the dark its darker in the.... day
|----------------------------------------------------------------------||----------------------------------------------------------------------||----------------------------------------------------------------------||--9--9--11-9--9--9--11-9----------------------------------------------||--7--7--7--7--7--7--7--7---9--9--11-9--9--9--11--7--7--9--7--7--7--9--||---------------------------7--7--7--7--7--7--7---5--5--5--5--5--5--5--|
|---------------------------------------||-------------12-12\--------------------||-------------12-12\-----------9-9-9-9--||-------------12-12\--9--9--9--9-9-9-9--||---7--7--7-----------7--7--7--7-7-7-7--||---0--0--0-----------------------------|
i forgot you were a liar!!
|---------------------------------------||------------12-12\---------------------||------------12-12\-------------9-9-9-9-||--9--9--9---12-12\----9--9--9--9-9-9-9-||--7--7--7-------------7--7--7--7-7-7-7-||---------------------------------------|
this is no place, this is no place
|----------------------------------------||----------------------------------------||----------------------------------------||----------------------------------------||--5--5--5--5--7--7--7--5--5--5--7--7--7-||--3--3--3--3--5--5--5--3--3--3--5--5--5-|
to be addicted to another place
|-----------------------||-----------------------||-----------------------||-----------------------||--9--9--9--9--9--9--9--||--7--7--7--7--7--7--7--|
|---------------------------------------------------||---------------------------------------------------||---------------------------------------------------||---------------2-----2-----2---------2-----2-----2-||------------------2-----4--2------------2-----4--2-||---12\--0--3h4----------------0--3h4---------------|
this is the whole song , just repeat everything with the different verses see you at the next show! -bertoast lyrics: i'll go somewhere else i'll move to the couch it's darker in the dark it's darker in the day i forgot you where a liar now its 5 to 12 shut up and smoke and i'll go somewhere else no more orange nightgowns one o'clock and then it ends one o'clock and then it ends this is no place this is no place to be addicted to another place i never get to go dont you want me to make it i took as long as you took you take a lot from me i forgot you were a theif i want to be like her instead i stay nowhere looked down in the basement lousy at the bottomm a life of intermission a life of intermission
Tap to rate this tab
 
# A B C D E F G H I J K L M N O P Q R S T U V W X Y Z