Xutos E Pontapes – Mundo Ao Contrario tab

---------------------------------------------------------
        Xutos e Pontapés – Mundo ao contrario
---------------------------------------------------------

Intro [2x]:

Am D Ce|-------------------------------------------------------|B|-------------------------------------------------------|G|--------5---7---7/9p7---5-------5---7---7^-(7)---5-----|D|----7-----------------------7--------------------------|A|-------------------------------------------------------|E|-------------------------------------------------------|
F----------------------------------------------5---|----------------------------------------3/5---5---|------5---7---7/9---7---5-------------------------|--5--------------------------7\5/7----------------|--------------------------------------------------|--------------------------------------------------|
Am D onde vais? C F perguntas tu ainda meio a dormir Am D não sei bem C F respondo eu sem saber o que vestir Am D porque sais? C F ainda é cedo e tu não sabes mentir Am D nem eu sei C F só sei que fica tarde e tenho de ir --- Play the intro here --- Am D bem depois C F de estar na rua instalou-se uma dor Am D por nós dois C F talvez sair tivesse sido melhor Am D se assim foi C F porque me sinto eu a morrer de amor? C F C tenho a noite a atravessar Dm dói-me não ir Am mas não me deixas voltar C F se gosto de ti Am se gostas de mim D se isto não chega tens o mundo ao contrario C F se gosto de ti Am se gostas de mim D se isto não chega tens o mundo ao contrario F o mundo ao contrario Am o mundo ao contrario Solo:
e|--3/5p3---5---3/5p3---5---3/5p3---5---3---3----------|B|----------------------------------------------5---4--|G|-----------------------------------------------------|D|-----------------------------------------------------|A|-----------------------------------------------------|E|-----------------------------------------------------|
---------------------------------------5p3---------5---|--5---3/5---3-------5-------------------------8^^------|----------------5-------5---2---0/2--------------------|-------------------------------------------------------|-------------------------------------------------------|-------------------------------------------------------|
-------5---7---7^---(7)---5---7^---(7)---5---10---10---|--8^^--------------------------------------------------|-------------------------------------------------------|-------------------------------------------------------|-------------------------------------------------------|-------------------------------------------------------|
--8/10----------------------5p3----------------------|---------10---8\5---5---5---------5---3--------------|------------------------------------------5p2--------|-----------------------------------------------------|-----------------------------------------------------|------------------------------------------------3/5--|
-------------------------------------------------------|------------------5------------------5----7p5----------|--2---5---7---7^------2---5---7---7^------------5---4--|-------------------------------------------------------|-------------------------------------------------------|-------------------------------------------------------|
------------------------------8--------8---------------|-------------------------8^^------8^^------8p5------7--|--2/4---5p4---2---5---7--------------------------7-----|-------------------------------------------------------|-------------------------------------------------------|-------------------------------------------------------|
-------------------5---7---5---------12-------12--------|--5\3-------5---8---------------12^------12^------(12)--|--------------------------------------------------------|--------7-----------------------------------------------|--------------------------------------------------------|--------------------------------------------------------|
------------------------------17---15---12\10-----------|-10---13---13^^---13^^---13--------------------10--8/10-|--------------------------------------------------------|--------------------------------------------------------|--------------------------------------------------------|--------------------------------------------------------|
C F C tenho a noite a atravessar Dm dói-me não ir Am mas não me deixas voltar C F se gosto de ti Am se gostas de mim D se isto não chega tens o mundo ao contrario C F se gosto de ti Am se gostas de mim D se isto não chega tens o mundo ao contrario C F se gosto de ti Am (o mundo ao contrario) D C (o mundo ao contrario) F se gostas de mim Am (o mundo ao contrario) D (o mundo ao contrario) C F se gosto de ti Am se gostas de mim D se isto não chega tens o mundo ao contrario F o mundo ao contrario Am o mundo ao contrario Best Portuguese Band!!
Please rate this tab:
x1.0