Yasunori Mitsuda - Journey To The Shores Of Another World tab

Intro Q=86 4/4 Gtr I|---------|----------|-----1-----0-1-----1-----0-1-||---------|----------|-----------------------------||---------|----------|---2-----2-------2-----2-----||---------|----------|-0-----0-------0-----0-------||---------|--------0-|-----------------------------||---------|----------|-----------------------------|
|-----1-----0-1-----0-------|-----5-----3-5-----6----------||-------------------------3-|---1-----1-------1--------10--||---------------------------|------------------------------||---3-----3-------3-----3---|-3-----3-------3-------10-----||-1-----1-------1-----1-----|---------------------8--------||---------------------------|------------------------------|
|---------------------------------|------------------------------------------||------8---------8----------------|------------------------------------------||-------------10--------10------9-|-------10---------------------------------||---------------------------------|----------------14-15--0----15-0----------||---10-----10--------10------10---|----12-------12---------------------19-20-||-8------8---------8-------8------|-10-------10-------------17------17-------|
|
| Gtr II|---------------------------------|----------------------10------------------||---------------------------------|--3---------------------------------------||---------------------------------|------------------------------------------||---------------------------------|------------------------------------------||---------------------------------|------------------------------------------||---------------------------------|------------------------------------------|
|------1-----0-1-----0---------|------5-----3-5---------6-------------------||----------------------------3-|----1-----1-----------1-----------10--------||------------------------------|--------------------------------------------||----3-----3-------3------3----|--3-----3---------3------------10-----------||--1-----1-------1------1------|----------------------------8---------------||------------------------------|--------------------------------------------|
|
|------------------------------|--------------------------------------------||------------------------------|-10-------------(10)-11---(11)----10h11p=10-||-10------------------------10-|--------------------------------------------||----------------------12------|--------------------------------------------||------------------------------|--------------------------------------------||------------------------------|--------------------------------------------|
|---------------------------------|------------------------------------------||------8---------8----------------|------------------------------------------||-------------10--------10------9-|-------10---------------------------------||---------------------------------|----------------14-15--0----15-0----------||---10-----10--------10------10---|----12-------12---------------------19-20-||-8------8---------8-------8------|-10-------10-------------17------17-------|
|
|---------------------------------|----------------------10------------------||-8------------------------6----5-|--3---------------------------------------||---------------------------------|------------------------------------------||---------------------------------|------------------------------------------||---------------------------------|------------------------------------------||---------------------------------|------------------------------------------|
|------1-----0-1-----0---------|------5-----3-5---------6-------------------||----------------------------3-|----1-----1-----------1-----------10--------||------------------------------|--------------------------------------------||----3-----3-------3------3----|--3-----3---------3------------10-----------||--1-----1-------1------1------|----------------------------8---------------||------------------------------|--------------------------------------------|
|
|------------------------------|--------------------------------------------||------------------------------|-10-------------(10)-11---(11)----10h11p=10-||-10------------------------10-|--------------------------------------------||----------------------12------|--------------------------------------------||------------------------------|--------------------------------------------||------------------------------|--------------------------------------------|
Verse|---------------------------------|-----------------------------||------8---------8----------------|-----6-------6-----6-------6-||-------------10--------10------9-|---7-------7-----7-------7---||---------------------------------|---------7-------------7-----||---10-----10--------10------10---|-8-----8-------8-----8-------||-8------8---------8-------8------|-----------------------------|
|
|---------------------------------|---------------1---------0-1-||-8------------------------6----5-|-3---------------------------||---------------------------------|-----------------------------||---------------------------------|-----------------------------||---------------------------------|-----------------------------||---------------------------------|-----------------------------|
|-----------------------------|-----0-------0-------0-------0-||-----5-------5-----5-------5-|---3-------3-------3-------3---||---5-------5-----5-------5---|---------0---------------0-----||---------7-------------7-----|-------0--------0------0-------||-----------------------------|-5-----------------------------||-5-----5-------5-----5-------|-------------------------------|
|
|-0---------------------------|-------------------------------||---------------1-------------|-1-3---3-------(3)-------------||-------------------------2---|-------------------------------||-----------------------------|-------------------------------||-----------------------------|-------------------------------||-----------------------------|-------------------------------|
|-------0-------0-----0-------0-|-----1-------1-----1-------1-||-----3-------3-----3-------3---|---3-------3-----3-------3---||-----------0-------------0-----|---------2-------------2-----||--0------0-------0-----0-------|-3-----3-------3-----3-------||-------------------------------|-----------------------------||-------------------------------|-----------------------------|
|
|-------------------------------|---------------1---------0-1-||-(3)---------------------------|-------3---------------------||-------------------------------|-----------------------------||-------------------------------|-----------------------------||-------------------------------|-----------------------------||-------------------------------|-----------------------------|
|-----0-------0-----0-------0-|-----------------------------||---1-------1-----1-------1---|-----3-------3-----3-------3-||---------2-------------2-----|---4-----0-4-----4-----0-4---||-----------------------------|-----------------------------||-0-----0-------0-----0-------|-----------------------------||-----------------------------|-3-----3-------3-----3-------|
|
|-0-------------3-------------|-------3-----------------0-1-||-----------------------------|---------------3-------------||-----------------------------|-----------------------------||-----------------------------|-----------------------------||-----------------------------|-----------------------------||-----------------------------|-----------------------------|
Chorus|-----0---------0-------3---0-|--5---------|------------------------------||-------------2-----2-----2---|------------|-----6-----5-6-----6-----5-6--||---2-------2-----2---2-------|------------|------------------------------||---------2-------------------|------------|---7-----7-------7-----7------||-0-----0-------0-------------|------------|-5-----5-------5-----5--------||-----------------------------|------------|------------------------------|
|
|-0---------------------------|-(0)--------|------------------------------||-----------------------------|------------|------------------------------||-----------------------------|------------|------------------------------||-----------------------------|------------|------------------------------||-----------------------------|------------|------------------------------||-----------------------------|------------|------------------------------|
|----------------------------|-------------------------------------||-----6----------------------|------10------8-10------11-----------||-----------9-10-----9-----7-|---------------------------------14--||----------------------------|---10------10--------10--------------||---8-----8--------8-----8---|-8-------8---------8----------15-----||-6-----6--------6-----6-----|---------------------------13--------|
|-----3-----1-3-----1-----0-|-----1-----0-1------1-----0-1-||---------------------------|------------------------------||---0-----0-------0-----0---|---2-----2--------2-----2-----||---------------------------|-0-----0--------0-----0-------||-3-----3-------3-----3-----|------------------------------||---------------------------|------------------------------|
|
| Gtr II|---------------------------|---------------10-------------||---------------------------|-3----------------------------||---------------------------|------------------------------||---------------------------|------------------------------||---------------------------|------------------------------||---------------------------|------------------------------|
|------1-----0-1-----0---------|------5-----3-5---------6-------------------||----------------------------3-|----1-----1-----------1-----------10--------||------------------------------|--------------------------------------------||----3-----3-------3------3----|--3-----3---------3------------10-----------||--1-----1-------1------1------|----------------------------8---------------||------------------------------|--------------------------------------------|
|
|------------------------------|--------------------------------------------||------------------------------|-10-------------(10)-11---(11)----10h11p=10-||-10------------------------10-|--------------------------------------------||----------------------12------|--------------------------------------------||------------------------------|--------------------------------------------||------------------------------|--------------------------------------------|
|---------------------------------|------------------------------------------||------8---------8----------------|------------------------------------------||-------------10--------10------9-|-------10---------------------------------||---------------------------------|----------------14-15--0----15-0----------||---10-----10--------10------10---|----12-------12---------------------19-20-||-8------8---------8-------8------|-10-------10-------------17------17-------|
|
|---------------------------------|----------------------10------------------||-8------------------------6----5-|--3---------------------------------------||---------------------------------|------------------------------------------||---------------------------------|------------------------------------------||---------------------------------|------------------------------------------||---------------------------------|------------------------------------------|
|------1-----0-1-----0---------|------5-----3-5---------6-------------------||----------------------------3-|----1-----1-----------1-----------10--------||------------------------------|--------------------------------------------||----3-----3-------3------3----|--3-----3---------3------------10-----------||--1-----1-------1------1------|----------------------------8---------------||------------------------------|--------------------------------------------|
|
|------------------------------|--------------------------------------------||------------------------------|-10-------------(10)-11---(11)----10h11p=10-||-10------------------------10-|--------------------------------------------||----------------------12------|--------------------------------------------||------------------------------|--------------------------------------------||------------------------------|--------------------------------------------|
Outro|---------------------------------|-----------------------------||------8---------8----------------|-----6-------6-----6-------6-||-------------10--------10------9-|---7-------7-----7-------7---||---------------------------------|---------7-------------7-----||---10-----10--------10------10---|-8-----8-------8-----8-------||-8------8---------8-------8------|-----------------------------|
|
|---------------------------------|---------------1---------0-1-||-8------------------------6----5-|-3---------------------------||---------------------------------|-----------------------------||---------------------------------|-----------------------------||---------------------------------|-----------------------------||---------------------------------|-----------------------------|
|-----------------------------|-----0-------0-------0-------0-||-----5-------5-----5-------5-|---3-------3-------3-------3---||---5-------5-----5-------5---|---------0---------------0-----||---------7-------------7-----|-------0--------0------0-------||-----------------------------|-5-----------------------------||-5-----5-------5-----5-------|-------------------------------|
|
|-0---------------------------|-------------------------------||---------------1-------------|-1-3---3-------(3)-------------||-------------------------2---|-------------------------------||-----------------------------|-------------------------------||-----------------------------|-------------------------------||-----------------------------|-------------------------------|
|-------0-------0-----0-------0-|-----1-------1-----1-------1-||-----3-------3-----3-------3---|---3-------3-----3-------3---||-----------0-------------0-----|---------2-------------2-----||--0------0-------0-----0-------|-3-----3-------3-----3-------||-------------------------------|-----------------------------||-------------------------------|-----------------------------|
|
|-------------------------------|---------------1---------0-1-||-(3)---------------------------|-------3---------------------||-------------------------------|-----------------------------||-------------------------------|-----------------------------||-------------------------------|-----------------------------||-------------------------------|-----------------------------|
|-----0-------0-----0-------0-|-----------------------------||---1-------1-----1-------1---|-----3-------3-----3-------3-||---------2-------------2-----|---4-----0-4-----4-----0-4---||-----------------------------|-----------------------------||-0-----0-------0-----0-------|-----------------------------||-----------------------------|-3-----3-------3-----3-------|
|
|-0-------------3-------------|-------3-----------------0-1-||-----------------------------|---------------3-------------||-----------------------------|-----------------------------||-----------------------------|-----------------------------||-----------------------------|-----------------------------||-----------------------------|-----------------------------|
|-----0---------0-------3---0-|--5---------*||-------------2-----2-----2---|------------*||---2-------2-----2---2-------|------------*||---------2-------------------|------------*||-0-----0-------0-------------|------------*||-----------------------------|------------*|
|
|-0---------------------------|-(0)--------*||-----------------------------|------------*||-----------------------------|------------*||-----------------------------|------------*||-----------------------------|------------*||-----------------------------|------------*|
Tablature Legend ---------------- h - hammer-on p - pull-off b - bend pb - pre-bend r - bend release (if no number after the r, then release immediately) /\ - slide into or out of (from/to "nowhere") s - legato slide S - shift slide - natural harmonic [n] - artificial harmonic n(n) - tapped harmonic ~ - vibrato tr - trill T - tap TP - trem. picking PM - palm muting \n/ - tremolo bar dip; n = amount to dip \n - tremolo bar down n/ - tremolo bar up /n\ - tremolo bar inverted dip = - hold bend; also acts as connecting device for hammers/pulls <> - volume swell (louder/softer) x - on rhythm slash represents muted slash o - on rhythm slash represents single note slash Misc Legend ----------- | - bar || - double bar ||o - repeat start o|| - repeat end *| - double bar (ending) : - bar (freetime) $ - Segno & - Coda Tempo markers - = BPM(8/16=s8/s16), where s8 = swing 8ths, s16 = swing 16ths
Tap to rate this tab
 
# A B C D E F G H I J K L M N O P Q R S T U V W X Y Z