Yattering – Annihilation Of Fellow Creatures tab

Band: Yattering
Album: Human's Pain
Song: Annihilation of Fellow Creatures
Record Label: Seasons Of Mist America
Tuning: D G C F A D

----------------------|----------------------|----------------------|----------------------|--------2--------6-5--|-000000-0-000000-4-3--| X4 pm . .
-------------------------|-------------------------|-------------------------|-------------------------|--------2--------6-5-(2)-|-000000-0-000000-4-3-(0)-| X4 pm(0) only on last time.
------------------------|------------------------|------------------------|------------------------|-2-22-5-22-------2------|-0-00-3-00-1-3-4---4-3--|X3 pm .. . . . . . .
------------------------|------------------------|------------------------|------------------------|-2-22-5-22-2-1----------|-0-00-3-00-----3-4-3-1--| pm .. . . . . . .
------------------------|------------------------|------------------------|------------------------|-2-22-5-22-------2------|-0-00-3-00-1-3-4---4-3--|X3 pm .. . . . . . .
--------------------------|--------------------------|--------------------------|--------------------------|-2-22-5-22-2-1---------2--|-0-00-3-00-----3-4-3-1-0--| pm .. . . . . . .
Bass Break........
--------------------------------------------------------------------------------|--------------------------------------------------------------------------------|--------------------------------------------------------------------------------|------------------------------4-------------------------------------------------|-2-1---------2----------------2--------------------2--------------2-1-----------|-----3-4-3-1-0-------------------------------------0------------------3-4-3-1-0-| pm. . . . . . . . . . . .
--------------------------|--------------------------|--------------------------|--------------------------|--------5----------2------|-000000-3----1-3-4---4-3--|X3 pm . . . . . .
--------------------------|--------------------------|--------------------------|--------------------------|--------5----2-1----------|-000000-3--------3-4-3-1--| pm . . . . . .
----------------------------------------|----------------------------------------|----------------------------------------|-------5--------5--------5--------------|-2--5--3--2--5--3--2--5--3-4-3---3-2----|-0--3-----0--3-----0--3--------1-----0--|X2 pm . . . . . . . .
----------------------------------------|----------------------------------------|----------------------------------------|-------5--------5--------5--------------|-2--5--3--2--5--3--2--5--3-4-3---3-2----|-0--3-----0--3-----0--3--------1-----0--|X2 trem..................... pm. . . . .
------------------------|------------------------|------------------------|------------------------|-2-22-5-22-------2------|-0-00-3-00-1-3-4---4-3--|X3 pm .. . . . . . .
------------------------|------------------------|------------------------|------------------------|-2-22-5-22-2-1----------|-0-00-3-00-----3-4-3-1--| pm .. . . . . . .
------------------------|------------------------|------------------------|------------------------|-2-22-5-22-------2------|-0-00-3-00-1-3-4---4-3--|X3 pm .. . . . . . .
------------------------|------------------------|------------------------|------------------------|-2-22-5-22-2-1----------|-0-00-3-00-----3-4-3-1--| pm .. . . . . . .
----------------------------------------|----------------------------------------|----------------------------------------|-------5--------5--------5--------------|-2--5--3--2--5--3--2--5--3-4-3---3-2----|-0--3-----0--3-----0--3--------1-----0--|X2 pm . . . . . . . .
----------------------------------------|----------------------------------------|----------------------------------------|-------5--------5--------5--------------|-2--5--3--2--5--3--2--5--3-4-3---3-2----|-0--3-----0--3-----0--3--------1-----0--|X2 trem..................... pm. . . . .
Another Bass Break.........
-----------|-----------|-----------|-----2-----|-----2-----|-----0-----|
--------------------------|--------------------------|--------------------------|--------------------------|-4-----3-----4-----3------|---2-1---1-0---2-1---1-0--|X2 pm. . . . . . . . . . .
--------------------------|--------------------------|--------------------------|-4-----3-----4-----3------|---2-1---1-0---2-1---1-0--|--------------------------|X2 pm. . . . . . . . . . .
----------------------------------|----------------------------------|----------------------------------|----------------------------------|-2-2-2-2-2-2-2-2-2-2-2-2-2-2-2-2--|-0-0-0-0-0-0-0-0-0-0-0-0-0-0-0-0--| pm. . . . . . . . . . . . . . .
----------------------------------|----------------------------------|----------------------------------|----------------------------------|-2-2-2-2-2-2-2-2-2-2-2-2-2-2-2-2--|-0-0-0-0-0-0-0-0-0-0-0-0-0-0-0-0--|
--------------------------------------------------------|--------------------------------------------------------|--------------------------------------------------------|--------------------------------------------------------|-------------------------------4----(-----4--)----------|-400003000040000300004000036666-654-(6666-654)----------|X4 pm............................ ... only on 4th time
------------------------------------------------------------------|------------------------------------------------------------------|------------------------------------------------------------------|------------------------------------------------------------------|-2-2-2-2-2-2-2-2-2-2-2-2-2-2-2-2-2-2-2-2-2-2-2-2-2-2-2-2-2-2-2-2--|-0-0-0-0-0-0-0-0-0-0-0-0-0-0-0-0-0-0-0-0-0-0-0-0-0-0-0-0-0-0-0-0--| pm. . . . . . . . . . . . . . . . . . . . . . . . . . . . . . .
-------------------------------------|-------------------------------------|-------------------------------------|-------------------------------------|-------------------------------4-----|-400003000040000300004000036666-654--|X4 pm............................ ...
--------------------------|--------------------------|--------------------------|-------6\5----------------|-8\7---4\3---6\5-2-2-2-2--|-6\5-0-----0-4\3-0-0-0-0--|X13 pm . . . . .
------------------------------|------------------------------|------------------------------|------------------------------|----3-3----6-6----9-9----5-5--|-111-1--444-4--777-7--333-3---|X2
pm. . ... . ... . ... .------------------------------|------------------------------|------------------------------|----3-3----6-6----9-9----5-5--|-111-1--444-4--777-7--333-3---|------------------------------|X2 pm. . ... . ... . ... .
-------------------------------|-------------------------------|-------------------------------|-------------------------------|-------------------------------|-1111111444444477777773333333--|X4
--------------------------|--------------------------|--------------------------|--------------------------|-4-----3-----4-----3------|---2-1---1-0---2-1---1-0--| pm. . . . . . . . . . .
-------------------------------|-------------------------------|-------------------------------|-------------------------------|-------------------------------|-1111111444444477777773333333--|X4
--------------------------|--------------------------|--------------------------|--------------------------|-4-----3-----4-----3------|---2-1---1-0---2-1---1-0--|X2 pm. . . . . . . . . . .
------------------------|------------------------|------------------------|------------------------|-2-22-5-22-------2------|-0-00-3-00-1-3-4---4-3--|X3 pm .. . . . . . .
--------------------------|--------------------------|--------------------------|--------------------------|-2-22-5-22-2-1---------2--|-0-00-3-00-----3-4-3-1-0--| pm .. . . . . . .
The End
Please rate this tab:
x1.0