Yellowcard - Light Up The Sky tab version 2

YELLOWCARD - LIGHT UP THE SKY
99% CORRECT

email: sam.rocks.123@hotmail.com
tabbed by: 2guitargod4 (sam)
all the other versions are incorrect and missing most of the lead stuff.
very fun song to play, scroll down for guitar 2

GUITAR 1
(E A D G B e)

Intro-----------------------------------------|-----------------------------------------|-5-55-55-5~-55-555--5-55-5-5-5-555-55-55-| X1-x-xx-xx-x~-xx-xxx--x-xx-x-x-x-xxx-xx-xx-|-x-xx-33-5~-55-xxx--x-xx-3-5-x-xxx-xx-xx-|-5-55----------333--5-55-----3-333-33-33-|
Verse-----------------------------------------|-----------------------------------------|-5-55-55-5~-55-555--5-55-5-5-5-555-55-55-| X2-x-xx-xx-x~-xx-xxx--x-xx-x-x-x-xxx-xx-xx-|-x-xx-33-5~-55-xxx--x-xx-3-5-5-555-55-55-|-5-55----------333--5-55-----------------|
Pre Chorus------------------------------------------------------|---------------<8>--------------8-----/10--5-8--------|----5-------/5-----<5>--------5-----------------5-4---|-/7---5~-------------------/7-----5~------------------|------------------------------------------------------|------------------------------------------------------|
get louder ...----------------------------------------------------------|----------------8--------------------(8)(8)--88-88-88-88--|----5-------/5------5---------5-------x--x---xx-xx-xx-xx--|-/7---5~-------------------/7---5-----5--5---55-55-55-55--|----------------------------------------------------------|----------------------------------------------------------|
Chorus X3 -15--------------------|-----------------------|----------12~-13-12----|-15-15-17-15--13-12----|----12--------------12-|--------------------12-| -------12--------------|-----------------------|-----------------------|-----------------------|-----------------------|-----------------------|
X3 -15--------------------|-----------------------|----------12~-13-12----|-15-15-17-15~~~--------|----12--------------12-|-----------------------| -------12--------------|-----------------------|-----------------------|-----------------------|-----------------------|-----------------------|
Interlude--------------------------------------------|--------------------------------------------|-5-55-55-5~-55-555--5-55-5-5-5-555-55-55-5~-| X1-x-xx-xx-x~-xx-xxx--x-xx-x-x-x-xxx-xx-xx-x~-|-x-xx-33-5~-55-xxx--x-xx-3-5-x-xxx-xx-xx-x~-|-5-55----------333--5-55-----3-333-33-33-5~-|
Verse 2 (can play strings part) OPTIONAL __________________________________________________| |
-----------------------------------------| |-----------------------------------------| | -9~---7\5/7--5\4/5~--\2------------------| X2 |-----------------------------------------| | -----------------------------------------| |-----------------------------------------| |__________________________________________________|
Verse 2-------------------------------------------------|-----------------------------------x----x----x---|---------------------------------x-x--x-x--x-x-x-|---------------------------------x-x--x-x--x-x-x-|---------------------------------x-x--x-x--x-x-x-|---------------------------------x----x----x---x-|
Pre Chorus------------------------------------------------------|---------------<8>--------------8-----/10--5-8--------|----5-------/5-----<5>--------5-----------------5-4---|-/7---5~-------------------/7-----5~------------------|------------------------------------------------------|------------------------------------------------------|
grow louder ...----------------------------------------------------------|----------------8--------------------(8)(8)--88-88-88-88--|----5-------/5------5---------5-------x--x---xx-xx-xx-xx--|-/7---5~-------------------/7---5-----5--5---55-55-55-55--|----------------------------------------------------------|----------------------------------------------------------|
Chorus X2 (can barely hear second time around)
X3 -15--------------------|-----------------------|----------12~-13-12----|-15-15-17-15--13-12----|----12--------------12-|--------------------12-| -------12--------------|-----------------------|-----------------------|-----------------------|-----------------------|-----------------------|
X3 -15--------------------|-----------------------|----------12~-13-12----|-15-15-17-15--13-12----|----12--------------12-|--------------------12-| -------12--------------|-----------------------|-----------------------|-----------------------|-----------------------|-----------------------|
another guitar plays this during the repeat of the chorus
guitar 3let ring ~~~~~~~~~~-----------------------------------------------------------------------------13-13-------13-13-------13-13-------13-13-----13-13-----13-13---12-12-------12-12-------10-10-------10-10-------9-9-------9-9--------------------------------------------------------------------------------------------------------------------------------------------------------------------------------------------------------------------------
-------------------------|-------13-13-------13-13-|-10-10-------10-10-------|-------------------------|-------------------------|-------------------------|
BRIDGEguitar 1-------10----10---------------------12----12----------10----------|----------13----13----12-13~-----------------------13-------------|----12-------------12------------12----12----12-------------------| X2-10---------------------------10----------------10----------------|------------------------------------------------------------------|------------------------------------------------------------------|
2:02 X3 ------7---8p7------------7---8p7------|-----7---8p7------|--------------8------------------8----|-------------8----|----5---5-------5------5---5-------7--|---5---5-------5--|--------------------------------------|------------------|--------------------------------------|------------------|--------------------------------------|------------------| . . . . . .
-12-10-12-10----10----------10-----------------------|-------------12----13-12-13----13-12-13-12-----------|-------------------------------------------12--------|----------------------------------------------12-10~-|-----------------------------------------------------|-----------------------------------------------------|
-------------------------------------------------------------------|-------------------------------------------------------------------|-7-7-7-7-7-7-7-7-5-5-5-5-5-5-5-5-5-5-5-5-5-5-5-5-5-5-5-5-5-5-5-5---| X2-5-5-5-5-5-5-5-5-3-3-3-3-3-3-3-3-2-2-2-2-2-2-2-2-3-3-3-3-3-3-3-3---|-------------------------------------------------------------------|-------------------------------------------------------------------| . . . . . . . . . . . . . . . . . . . . . . . . . . . .
Chorus X2 (can barely hear second time around)
X3 -15--------------------|-----------------------|----------12~-13-12----|-15-15-17-15--13-12----|----12--------------12-|--------------------12-| -------12--------------|-----------------------|-----------------------|-----------------------|-----------------------|-----------------------|
X3 -15--------------------|-----------------------|----------12~-13-12----|-15-15-17-15--13-12----|----12--------------12-|--------------------12-| -------12--------------|-----------------------|-----------------------|-----------------------|-----------------------|-----------------------|
another guitar plays this during the repeat of the chorus
guitar 3let ring ~~~~~~~~~~-----------------------------------------------------------------------------13-13-------13-13-------13-13-------13-13-----13-13-----13-13---12-12-------12-12-------10-10-------10-10-------9-9-------9-9--------------------------------------------------------------------------------------------------------------------------------------------------------------------------------------------------------------------------
-------------------------|-------13-13-------13-13-|-10-10-------10-10-------|-------------------------|-------------------------|-------------------------|
outro-----------------------------------------|-----------------------------------------|-5-55-55-5~-55-555--5-55-5-5-5-555-55-55-| -x-xx-xx-x~-xx-xxx--x-xx-x-x-x-xxx-xx-xx-|-x-xx-33-5~-55-xxx--x-xx-3-5-x-xxx-xx-xx-|-5-55----------333--5-55-----3-333-33-33-|
---------------------------------|---------------------------------|-5-55-55-5~-55-555--5-55-5-5-5~~-| END -x-xx-xx-x~-xx-xxx--x-xx-x-x-x~~-|-x-xx-33-5~-55-xxx--x-xx-3-5-x~~-|-5-55----------333--5-55-----3~~-|
GUITAR 2: (E A D G B e)
Intro-----------------------------------------|-----------------------------------------|-----------------------------------------|-----------------------------------------|-----------------------------------------|-----------------------------------------|
verse-----------------------------------------|-----------------------------------------|-----------------------------------------|-----------------------------------------| X2------33-5~-55----------3-5-555-55-55----|-5-55----------333-5-55------------------|
Pre chorus X3--------------------|--------------------------|--------------------|--------------------------|--------------------|--------------------------|--------------------|--------------55-55-55-55-|------3-5-----------|------3-5-----xx-xx-xx-xx-|-5-55-----3-33-3333-|-5-55-----3-3-33-33-33-33-|
Chorus-----------------------------------------|-----------------------------------------|-----------------------------------------| X2-----------------------------------------|-33333333-33333333-55555555-3333333------|-00000000-11111111-33333333-1111111------|
Interlude-------------------------------------------|-------------------------------------------|-------------------------------------------|-------------------------------------------|------33-5~-55----------3-5----------------|-5-55----------333-5-55-----3-333-33-33-5~-|
verse-----------------------------------------|-----------------------------------------|-----------------------------------------|-guitar 2 does not play anything---------| -----------------------------------------|-----------------------------------------|
Pre chorus X3--------------------|--------------------------|--------------------|--------------------------|--------------------|--------------------------|--------------------|--------------55-55-55-55-|------3-5-----------|------3-5-----xx-xx-xx-xx-|-5-55-----3-33-3333-|-5-55-----3-3-33-33-33-33-|
Chorus-----------------------------------------|-----------------------------------------|-----------------------------------------| X4-----------------------------------------|-33333333-33333333-55555555-3333333------|-00000000-11111111-33333333-1111111------|
Bridge-----------------------------------------|-----------------------------------------|-55555555-55555555-55555555-55555555-----| X2-77777777-55555555-22222222-33333333-----|-----------------------------------------|-----------------------------------------| ........ ........ ........ ......
-----------------------------------------|-----------------------------------------|-----------------------------------------|-----------------------------------------|-33333333-33333333-77777777-55555555-----|-11111111-00000000-55555555-33333333-----|
-------------------------------------------------|-------------------------------------------------|---------------------------------------------5~--|---------------------------------------------5~--|-33333333-33333333-77777777-5555555555555555-3---|-11111111-00000000-55555555-3333333333333333-----|
-----------------------------------------|-----------------------------------------|-----------------------------------------|-----------------------------------------|-----------------------------------------|-----------------------------------------|
-----------------------------------------|-----------------------------------------|-----------------------------------------|-----------------------------------------| X2-55555555-33333333-33333333-33333333-----|-33333333-11111111-00000000-11111111-----| ........ ........ ........ .....
Chours-----------------------------------------|-----------------------------------------|-----------------------------------------| X4-----------------------------------------|-33333333-33333333-55555555-3333333------|-00000000-11111111-33333333-1111111------|
Outro-----------------------------------------|-----------------------------------------|-----------------------------------------|-----------------------------------------| ------33-5~-55----------3-5--------------|-5-55----------333-5-55-----333-33-33----|
-----------------------------------------|-----------------------------------------|-----------------------------------------| END----------------------------5~~~---------| ------33-5~-55----------3-5-x~~~---------|-5-55----------333-5-55-----3~~~---------|
************************************ | / slide up | \ slide down | h hammer-on | p pull-off | ~ vibrato | <> harmonic | x Mute note | . palm mute | b Bend | pb Pre-bend | br Bend release | pbr Pre-bend release | brb Bend release bend ************************************
Tap to rate this tab
 
# A B C D E F G H I J K L M N O P Q R S T U V W X Y Z