Yes - Roundabout tab

                                 Roundabout
                                    YES

Intro:|-----------------Har12-------7--5h7p5-------5-------------------||--------------Har12--------------------8-7----------------------||-----------Har12------------------------------------------------||----------------------------------------------------------------||----------------------------------------------------------------||-Har12----------------------------------------------------------|
|-----------------Har12-------7--5h7p5---------------------------||--------------Har12--------------------8-7----------------------||-----------Har12------------------------------4h5h7-------------||----------------------------------------------------4h5h7-------||----------------------------------------------------------3-----||-Har12----------------------------------------------------------|
|-----------------Har12-------7--5h7p5-------5-------------------||--------------Har12--------------------8-7--------7-------------||-----------Har12------------------------------------------------||----------------------------------------------------------------||----------------------------------------------------------------||-Har12----------------------------------------------------------|
|-2--3-2h3p2----0----------------------||------------3----3-1-0--3-0-1---0-----||------------------------------2---0-2-||-0------------------------------------||---------------3--------2---0---------||--------------------------------3---2-|
Electric Guitar:|----------------------------------------------------||----------------------------------------------------||----------------------------------------------------||---------------------0h2----------------------0h2---||-----------------0h2----------------------0h2-------||-0-x-x-2-x-x-3-3----------0-x-x-2-x-x-3-3---------3-|
|-------------------------------------------||-------------------------------------------||-------------------------------------------||---------------------0h2------2p0----------||-----------------0h2--------------2--2p0---||-0-x-x-2-x-x-3-3----------0----------------|
During The Electric Guitar PartThe Nylon String Guitar Does this:|-Har12---------------------------------Har12--||-Har12---Har7--------Har7--------Har7--Har12--||---------Har7--Har5--Har7--Har5--Har7---------||---------------Har5--------Har5---------------||----------------------------------------------||----------------------------------------------|
|-Har12----------------------Har12--||-Har12---Har7--------Har7---Har12--||---------Har7--Har5--Har7----------||---------------Har5----------------||-----------------------------------||-----------------------------------|
I'll be the roundabout.
Electric Guitar:|---------------------------------------------------||---------------------------------------------------||---------------------------------------------------||---------------------0h2----------------------0h2--||-----------------0h2----------------------0h2------||-0-x-x-2-x-x-3-3----------0-x-x-2-x-x-3-3----------|
Nylon String:|-Har12---------------------------------Har12--||-Har12---Har7--------Har7--------Har7--Har12--||---------Har7--Har5--Har7--Har5--Har7---------||---------------Har5--------Har5---------------||----------------------------------------------||----------------------------------------------|
The words will make you out n' out.
Electric Guitar:|-------------------------------------------||-------------------------------------------||-------------------------------------------||---------------------0h2------2p0----------||-----------------0h2--------------2--2p0---||-0-x-x-2-x-x-3-3----------0--------------3-|
Nylon String:|-Har12----------------------Har12--||-Har12---Har7--------Har7---Har12--||---------Har7--Har5--Har7----------||---------------Har5----------------||-----------------------------------||-----------------------------------|
I'll spend the day your way.
Electric Guitar:|--------------------------------------||--------------------------------------||--------------------------------------||--------------------------------------||-0--0-0--2-2-2--3-3-3--2-2-2--3-2-0---||--------------------------------------|
Nylon String:|-Har12---------------------------------Har12--||-Har12---Har7--------Har7--------Har7--Har12--||---------Har7--Har5--Har7--Har5--Har7---------||---------------Har5--------Har5---------------||----------------------------------------------||----------------------------------------------|
Call it morning driving through the sound and in and out the valley.
Nylon String (No Electric):|------------------------||------------------------||-4----2----------4------||-4----2----5-----4------||-2----0----5-----2------||-----------3------------|
Electric Guitar:|----------------------------------------------------||----------------------------------------------------||----------------------------------------------------||---------------------0h2----------------------0h2---||-----------------0h2----------------------0h2-------||-0-x-x-2-x-x-3-3----------0-x-x-2-x-x-3-3-----------|
|-------------------------------------||-------------------------------------||-------------------------------------||---------------------0h2-------------||-----------------0h2-----------------||-0-x-x-2-x-x-3-3----------0----------|
Nylon String:|-Har12---------------------------------Har12--||-Har12---Har7--------Har7--------Har7--Har12--||---------Har7--Har5--Har7--Har5--Har7---------||---------------Har5--------Har5---------------||----------------------------------------------||----------------------------------------------|
|-Har12----------------------Har12--||-Har12---Har7--------Har7---Har12--||---------Har7--Har5--Har7----------||---------------Har5----------------||-----------------------------------||-----------------------------------|
The music dance and sing.
Electric Guitar:|-------------------------------------------||-------------------------------------------||-------------------------------------------||---------------------0h2------2p0----------||-----------------0h2--------------2--2p0---||-0-x-x-2-x-x-3-3----------0--------------3-|
Nylon String:|-Har12----------------------Har12--||-Har12---Har7--------Har7---Har12--||---------Har7--Har5--Har7----------||---------------Har5----------------||-----------------------------------||-----------------------------------|
They make the children really ring.
Electric Guitar:|-------------------------------------------||-------------------------------------------||-------------------------------------------||---------------------0h2------2p0----------||-----------------0h2--------------2--2p0---||-0-x-x-2-x-x-3-3----------0--------------3-|
Nylon String:|-Har12----------------------Har12--||-Har12---Har7--------Har7---Har12--||---------Har7--Har5--Har7----------||---------------Har5----------------||-----------------------------------||-----------------------------------|
I'll spend the day your way.
Electric Guitar:|--------------------------------------||--------------------------------------||--------------------------------------||--------------------------------------||-0--0-0--2-2-2--3-3-3--2-2-2--3-2-0---||--------------------------------------|
Nylon String:|-Har12---------------------------------Har12--||-Har12---Har7--------Har7--------Har7--Har12--||---------Har7--Har5--Har7--Har5--Har7---------||---------------Har5--------Har5---------------||----------------------------------------------||----------------------------------------------|
Call it morning driving through the sound and in and out the valley.
Nylon String:|------------------------||------------------------||-4----2----------4------||-4----2----5-----4------||-2----0----5-----2------||-----------3------------|
Electric Guitar:|---------------------------------------------||---------------------------------------------||---------------------------------------------||--------------------------3--2--0-----0-2-3--||-----------------------------------3---------||---------------------------------------------|
In and around the lake.
|---------------------||-3---5-6-5-6-5--3----||-2---4-5-4-5-4--2----||-0---2-3-2-3-2--0----||---------------------||---------------------|
Mountains come out of the sky and they stand there.
|-----------------||-3---5-6-5--8--8-||-2---4-5-4--7--7-||-0---2-3-2--5--5-||-----------------||-----------------|
|---------------------||-3---5-6-5-6-5--3----||-2---4-5-4-5-4--2----||-0---2-3-2-3-2--0----||---------------------||---------------------|
One mile over we'll be there and we'll see you.
|---------------------||-3---5-6-5-6-5--3----||-2---4-5-4-5-4--2----||-0---2-3-2-3-2--0----||---------------------||---------------------|
Ten true summers we'll be there and laughing too.
|---------------------||-3---5-6-5-6-5--3----||-2---4-5-4-5-4--2----||-0---2-3-2-3-2--0----||---------------------||---------------------|
Twenty four before my love you'll see I'll be there with you.
|------------------------------||-3---5-6-5--8-8--5-6-8-10-10--||-2---4-5-4--7-7--4-5-7--9--9--||-0---2-3-2--5-5--2-3-5--7--7--||------------------------------||------------------------------|
Electric Guitar:|---------------------------------------------------||---------------------------------------------------||---------------------------------------------------||---------------------0h2----------------------0h2--||-----------------0h2----------------------0h2------||-0-x-x-2-x-x-3-3----------0-x-x-2-x-x-3-3----------|
| |Nylon String: ||-Har12---------------------------------Har12-------||-Har12---Har7--------Har7--------Har7--Har12-------||---------Har7--Har5--Har7--Har5--Har7--------------||---------------Har5--------Har5--------------------||---------------------------------------------------||---------------------------------------------------|
Electric Guitar:|---------------------------------------------------||---------------------------------------------------||---------------------------------------------------||---------------------0h2---------------------------||-----------------0h2-------------------------------||-0-x-x-2-x-x-3-3-----------------------------------|
| |Nylon String: ||-Har12---------------------------------------------||-Har12---Har7--------Har7--------------------------||---------Har7--Har5--Har7--------------------------||---------------Har5--------------------------------||---------------------------------------------------||---------------------------------------------------|
Electric Guitar:|---------------------------------------------------||---------------------------------------------------||---------------------------------------------------||---------------------0h2----------------------0h2--||-----------------0h2----------------------0h2------||-0-x-x-2-x-x-3-3----------0-x-x-2-x-x-3-3----------|
| |Nylon String: ||-Har12---------------------------------Har12-------||-Har12---Har7--------Har7--------Har7--Har12-------||---------Har7--Har5--Har7--Har5--Har7--------------||---------------Har5--------Har5--------------------||---------------------------------------------------||---------------------------------------------------|
|---------------------||---------------------||---------------------||---------------------||-3-3---2--0----------||-------------3--2--0-|
I will remember you.
Electric Guitar:|-------------------------------------------||-------------------------------------------||-------------------------------------------||---------------------0h2------2p0----------||-----------------0h2--------------2--2p0---||-0-x-x-2-x-x-3-3----------0--------------3-|
Nylon String:|-Har12----------------------Har12--||-Har12---Har7--------Har7---Har12--||---------Har7--Har5--Har7----------||---------------Har5----------------||-----------------------------------||-----------------------------------|
Your silhouette will charge the view.
Electric Guitar:|-------------------------------------------||-------------------------------------------||-------------------------------------------||---------------------0h2------2p0----------||-----------------0h2--------------2--2p0---||-0-x-x-2-x-x-3-3----------0--------------3-|
Nylon String:|-Har12----------------------Har12--||-Har12---Har7--------Har7---Har12--||---------Har7--Har5--Har7----------||---------------Har5----------------||-----------------------------------||-----------------------------------|
Of distance atmosphere.
Electric Guitar:|--------------------------------------||--------------------------------------||--------------------------------------||--------------------------------------||-0--0-0--2-2-2--3-3-3--2-2-2--3-2-0---||--------------------------------------|
Nylon String:|-Har12---------------------------------Har12--||-Har12---Har7--------Har7--------Har7--Har12--||---------Har7--Har5--Har7--Har5--Har7---------||---------------Har5--------Har5---------------||----------------------------------------------||----------------------------------------------|
Call it morning driving thru the sound and even in the valley.
Nylon String:|------------------------||------------------------||-4----2----------4------||-4----2----5-----4------||-2----0----5-----2------||-----------3------------|
|
Electric Guitar:|---------------------------------------------||---------------------------------------------||---------------------------------------------||--------------------------3--2--0-----0-2-3--||-----------------------------------3---------||---------------------------------------------|
In and around the lake.
|---------------------||-3---5-6-5-6-5--3----||-2---4-5-4-5-4--2----||-0---2-3-2-3-2--0----||---------------------||---------------------|
Mountains come out of the sky and they stand there.
|-----------------||-3---5-6-5--8--8-||-2---4-5-4--7--7-||-0---2-3-2--5--5-||-----------------||-----------------|
|---------------------||-3---5-6-5-6-5--3----||-2---4-5-4-5-4--2----||-0---2-3-2-3-2--0----||---------------------||---------------------|
One mile over we'll be there and we'll see you.
|---------------------||-3---5-6-5-6-5--3----||-2---4-5-4-5-4--2----||-0---2-3-2-3-2--0----||---------------------||---------------------|
Ten true summers we'll be there and laughing too.
|---------------------||-3---5-6-5-6-5--3----||-2---4-5-4-5-4--2----||-0---2-3-2-3-2--0----||---------------------||---------------------|
Twenty four before my love you'll see I'll be there with you.
|------------------------------||-3---5-6-5--8-8--5-6-8-10-10--||-2---4-5-4--7-7--4-5-7--9--9--||-0---2-3-2--5-5--2-3-5--7--7--||------------------------------||------------------------------|
|---------------------||---------------------||---------------------||---------------------||-3-3---2--0----------||-------------3--2--0-|
|-----------------------------------------------------||-----------------------------------------------------||-----------------------------------------------------||-----------------------------------------------------||----------0----2--0-----0---2--0-----0---------------||-0--2--3-------------3------------3-----2--3--3-2-0--|
|-----------------------------------------------------||-----------------------------------------------------||-----------------------------------------------------||-----------------------------------------------------||----------0----2--0-----0---2--0-----0---------------||-0--2--3-------------3------------3-----2--3--3-2-0--|
Along the drifting cloud the eagle searching down on the land
|-----------------------------------------------------||-----------------------------------------------------||-----------------------------------------------------||-----------------------------------------------------||----------0----2--0-----0---2--0-----0---------------||-0--2--3-------------3------------3-----2--3--3-2-0--|
Catching the swirling wind the sailor sees the rim of the land
|-----------------------------------------------------||-----------------------------------------------------||-----------------------------------------------------||-----------------------------------------------------||----------0----2--0-----0---2--0-----0---------------||-0--2--3-------------3------------3-----2--3--3-2-0--|
The eagle's dancing wings create as weather spins out of hand
|-----------------------------------------------------||-----------------------------------------------------||-----------------------------------------------------||-----------------------------------------------------||----------0----2--0-----0---2--0-----0---------------||-0--2--3-------------3------------3-----2--3--3-2-0--|
|-12----12--7--10----7--9--10--12--14--15--12--17-||-12----12--7--10----7--9--10--12--14--15--12--17-||-------------------------------------------------||-------------------------------------------------||-------------------------------------------------||-------------------------------------------------|
|-12----12--7--10----7--9--10--12--14--15--12--17-||-12----12--7--10----7--9--10--12--14--15--12--17-||-------------------------------------------------||-------------------------------------------------||-------------------------------------------------||-------------------------------------------------|
Go closer hold the land feel partly no more than grains of sand
|-----------------------------------------------------||-----------------------------------------------------||-----------------------------------------------------||-----------------------------------------------------||----------0----2--0-----0---2--0-----0---------------||-0--2--3-------------3------------3-----2--3--3-2-0--|
We stand to lose all time a thousand answers by in our hand
|-----------------------------------------------------||-----------------------------------------------------||-----------------------------------------------------||-----------------------------------------------------||----------0----2--0-----0---2--0-----0---------------||-0--2--3-------------3------------3-----2--3--3-2-0--|
Next to your deeper fears we stand surrounded by a million years
|-----------------------------------------------------||-----------------------------------------------------||-----------------------------------------------------||-----------------------------------------------------||----------0----2--0-----0---2--0-----0---------------||-0--2--3-------------3------------3-----2--3--3-2-0--|
I'll be the roundabout the words will make you out 'n' out
|-----------------------------------------------------||-----------------------------------------------------||-----------------------------------------------------||-----------------------------------------------------||----------0----2--0-----0---2--0-----0---------------||-0--2--3-------------3------------3-----2--3--3-2-0--|
I'll be the roundabout the words will make you out 'n' out
|-----------------------------------------------------||-----------------------------------------------------||-----------------------------------------------------||-----------------------------------------------------||----------0----2--0-----0---2--0-----0---------------||-0--2--3-------------3------------3-----2--3--3-2-0--|
|----------Har12-------7--5h7p5-------5-------------------||-------Har12--------------------8-7----------------------||----Har12------------------------------------------------||---------------------------------------------------------||---------------------------------------------------------||---------------------------------------------------------|
|-----------------Har12-------7--5h7p5---------------------------||--------------Har12--------------------8-7----------------------||-----------Har12------------------------------4h5h7-------------||----------------------------------------------------4h5h7-------||----------------------------------------------------------3-----||-Har12----------------------------------------------------------|
|---------------Har12-------7--5h7p5-------5---7--5h7p5--------||------------Har12--------------------8-7----------------8-7---||---------Har12------------------------------------------------||--------------------------------------------------------------||----------------------------------------------7---------------||-Har12--------------------------------------------------------|
|---------------------||---------------------||-4--5--7-------------||----------4--5--7----||-------------------3-||---------------------|
In and around the lake. Mountains come out of the sky and they stand there. Twenty-Four before my love and I'll be there. Organ Solo
|--------------------------------||-3--5-6-5-6-5--3----3--5-6-5--3-||-2--4-5-4-5-4--2----2--4-5-4--2-||-0--2-3-2-3-2--0----0--2-3-2--0-||--------------------------------||--------------------------------|
|--------------------------------||-3--5-6-5-6-5--3----3--5-6-5--3-||-2--4-5-4-5-4--2----2--4-5-4--2-||-0--2-3-2-3-2--0----0--2-3-2--0-||--------------------------------||--------------------------------|
|--------------------------------||-3--5-6-5-6-5--3----3--5-6-5--3-||-2--4-5-4-5-4--2----2--4-5-4--2-||-0--2-3-2-3-2--0----0--2-3-2--0-||--------------------------------||--------------------------------|
|--------------------------------||-3--5-6-5-6-5--3----3--5-6-5--3-||-2--4-5-4-5-4--2----2--4-5-4--2-||-0--2-3-2-3-2--0----0--2-3-2--0-||--------------------------------||--------------------------------|
|--------------------------------------------------||-----------5--------------------------------------||-------5-7----7-5------------------5-7--5---------||---5-7------------7-5----------5-7--------7-5-----||-7--------------------7----5-7----------------7-5-||--------------------------------------------------|
|-----------------------------------------------------||-----------5-----------------------------------------||-------5-7----7-5----------------------5-7p5---------||---5-7------------7-5--------------5-7-------7-5-----||-7--------------------7--------5-7---------------7-5-||---------------------------5-7-----------------------|
Guitar Solo:|--------------------------------------------------------||-------------3p1p0--------------------------------------||-4p2p0-5p4p2-------5p4p2-4p2p0----4p2--2p0--0-----------||----------------------------------------------3-3-2-----||----------------------------------------------------3---||------------------------------------------------------3-|
|--------------------13-15-15--13-----------------------------||-------13-15-15--15--------------15-13--15p13p12-13p12-------||-12-15----14-14--14------------------------------------14-12-||-------------------------------------------------------------||-------------------------------------------------------------||-------------------------------------------------------------|
|--------------------------------||-3--5-6-5-6-5--3----3--5-6-5--3-||-2--4-5-4-5-4--2----2--4-5-4--2-||-0--2-3-2-3-2--0----0--2-3-2--0-||--------------------------------||--------------------------------|
|--------------------------------||-3--5-6-5-6-5--3----3--5-6-5--3-||-2--4-5-4-5-4--2----2--4-5-4--2-||-0--2-3-2-3-2--0----0--2-3-2--0-||--------------------------------||--------------------------------|
|--------------------------------------------------||-----------3--------------------------------------||-------3-5----5-3------------------3-5--3---------||---3-5------------5-3----------3-5--------5-3-----||-5--------------------5----3-5----------------5-3-||--------------------------------------------------|
|-----------------------------------------------------||-----------3-----------------------------------------||-------3-5----5-3----------------------3-5p3---------||---3-5------------5-3--------------3-5-------5-3-----||-5--------------------5--------3-5---------------5-3-||---------------------------3-5-----------------------|
2nd: Guitar Solo:|-12---10-9-9h10p9p7-9-10-9-7-9----------------------------------7----8-||-------------------------------10-8---10-8-10-----8-7h8-10-8h10---10---||----------------------------------------------9------------------------||-----------------------------------------------------------------------||-----------------------------------------------------------------------||-----------------------------------------------------------------------|
|-------------------------------7--9-||-----------------------7--8-10------||------------------7-9---------------||---------7--9--10-------------------||-7--9-10----------------------------||------------------------------------|
|-7h9p7h9p7h9--10h14p10h14p10h14-7h9p7h9p7h9--10h14p10h14p10h14-||---------------------------------------------------------------||---------------------------------------------------------------||---------------------------------------------------------------||---------------------------------------------------------------||---------------------------------------------------------------|
I'll be the roundabout.
Electric Guitar:|---------------------------------------------------||---------------------------------------------------||---------------------------------------------------||---------------------0h2----------------------0h2--||-----------------0h2----------------------0h2------||-0-x-x-2-x-x-3-3----------0-x-x-2-x-x-3-3----------|
Nylon String:|-Har12---------------------------------Har12--||-Har12---Har7--------Har7--------Har7--Har12--||---------Har7--Har5--Har7--Har5--Har7---------||---------------Har5--------Har5---------------||----------------------------------------------||----------------------------------------------|
The words will make you out n' out.
Electric Guitar:|-------------------------------------------||-------------------------------------------||-------------------------------------------||---------------------0h2------2p0----------||-----------------0h2--------------2--2p0---||-0-x-x-2-x-x-3-3----------0--------------3-|
Nylon String:|-Har12----------------------Har12--||-Har12---Har7--------Har7---Har12--||---------Har7--Har5--Har7----------||---------------Har5----------------||-----------------------------------||-----------------------------------|
I'll spend the day your way.
Electric Guitar:|--------------------------------------||--------------------------------------||--------------------------------------||--------------------------------------||-0--0-0--2-2-2--3-3-3--2-2-2--3-2-0---||--------------------------------------|
Nylon String:|-Har12---------------------------------Har12--||-Har12---Har7--------Har7--------Har7--Har12--||---------Har7--Har5--Har7--Har5--Har7---------||---------------Har5--------Har5---------------||----------------------------------------------||----------------------------------------------|
Call it morning driving through the sound and in and out the valley-hey.
Nylon String:|------------------------||------------------------||-4----2----------4------||-4----2----5-----4------||-2----0----5-----2------||-----------3------------|
Electric Guitar:|---------------------------------------------||---------------------------------------------||---------------------------------------------||--------------------------3--2--0-----0-2-3--||-----------------------------------3---------||---------------------------------------------|
In and around the lake.
|---------------------||-3---5-6-5-6-5--3----||-2---4-5-4-5-4--2----||-0---2-3-2-3-2--0----||---------------------||---------------------|
Mountains come out of the sky and they stand there.
|-----------------||-3---5-6-5--8--8-||-2---4-5-4--7--7-||-0---2-3-2--5--5-||-----------------||-----------------|
|---------------------||-3---5-6-5-6-5--3----||-2---4-5-4-5-4--2----||-0---2-3-2-3-2--0----||---------------------||---------------------|
One mile over we'll be there and we'll see you.
|---------------------||-3---5-6-5-6-5--3----||-2---4-5-4-5-4--2----||-0---2-3-2-3-2--0----||---------------------||---------------------|
Ten true summers we'll be there and laughing too.
|---------------------||-3---5-6-5-6-5--3----||-2---4-5-4-5-4--2----||-0---2-3-2-3-2--0----||---------------------||---------------------|
Twenty four before my love you'll see I'll be there with you.
|------------------------------||-3---5-6-5--8-8--5-6-8-10-10--||-2---4-5-4--7-7--4-5-7--9--9--||-0---2-3-2--5-5--2-3-5--7--7--||------------------------------||------------------------------|
Outro:
|-2--3-2h3p2----0----------------------------0-||------------3----3-1-0--3-0-1---0----------0--||------------------------------2---0-2-----1---||-0---------------------------------------2----||---------------3--------2---0-----------2-----||--------------------------------3---2--0------|
Tap to rate this tab
 
# A B C D E F G H I J K L M N O P Q R S T U V W X Y Z