Yes - And You And I Part Iii The Preacher The Teacher tab

-----------------------------------------------------------------------------
	   And you and I part III. The Preacher The Teacher - YES
-----------------------------------------------------------------------------



Intro:

E||-----------------5----|B||-------7----0---------|G||--0-------------------|D||----------------------|A||----------------------|E||----------------------|
--------------------|-----------------5----|--------------------|-------7----0---------|--------------------|--0-------------------|--------------------|----------------------|-------9------------|----------------------|--0-----------------|----------------------|
--------------------|-----------------5----|--------------------|-------7----0---------|--------------------|--0-------------------|-------5------------|----------------------|--0-----------------|----------------------|--------------------|----------------------|
--------------------|-----------------5----|--------------------|-------7----0---------|-------9------------|--0-------------------|--0-----------------|----------------------|--------------------|----------------------|--------------------|----------------------|
----------------------|----------------------|----------------------|----------------------|-------9s----5--------|--0-------------------|
-----------------5----|-------7----0---------|--0-------------------|----------------------|----------------------|----------------------|
------------------------|------------------------|------------------------|-------5g4--------------|--0---------------0--0--|------------------------|
-----------------5----||-------7----0---------||--0-------------------||----------------------||----------------------||----------------------||
[Patterns - Fret to be played starting from the lower string (E)] Time Signature 3/4 E5 xx2400(2/4) Bsus4 xx4400(1/4) B x24400 (2/4) F#7sus4 x44400 (1/4) G#m7 4x4400 (2/4) B7sus4 x04400 (1/4) B x24400 (2/4) F#7sus4 x44400 (1/4) E5 Bsus4 B F#7sus4 G#m7 B7sus4 B F#7sus4 Sad preacher nailed upon the coloured door of time; E5 Bsus4 B F#7sus4 G#m7 B7sus4 B F#7sus4 Insane teacher be there reminded of the rhyme. E5 Bsus4 Esus2* B7sus4 There'll be no mutant enemy we shall certify; G#m4 B7sus4 B F#7sus4 Political ends, as sad remains, will die. E5 Bsus4 B F#7sus4 Reach out as forward tastes begin to enter you. C#m7 x46454 (2/4) -| F#m xxx222 (1/4) | x2 G#m 466444 (2/4) | F#m xxx222 (1/4) _| E F#m B A/C# I listened hard but could not see E/G# A B A/C# Life tempo change out and inside me. E F#m B A/C# The preacher trained in all to lose his name; E/G# A B A/C# The teacher travels, asking to be shown the same. C#m7 F#m G#m F#m In the end, we'll agree, we'll accept, we'll immortalise C#m7 F#m G#m F#m That the truth of the man maturing in his eyes, C#m7 F#m G#m F#m All complete in the sight of seeds of life with you. Keyboard solo C#m7 (2/4) -| F#m (1/4) | x2 G#m (2/4) | F#m (1/4) _| C#m7 F#m G#m F#m Coming quickly to terms of all expression C#m7 F#m G#m F#m As a moment regained and regarded both the same, C#m7 F#m G#m A Emotion revealed as the ocean maid, E F#m B A/C# A clearer future, morning, evening, nights with you.
Tap to rate this tab
 
# A B C D E F G H I J K L M N O P Q R S T U V W X Y Z