Yes - Long Distance Runaround tab

                     Long Distance Runaround (Jon Anderson)
                                   YES
                                 Fragile

intro:|----------------15--13p12-------|----------------15--13p12-15h17-15-------||-------------15-----------13----|-------------15--------------------15h17-||----------15-----------------12-|----------15-----------------------------||-15p14-17-----------------------|-15p14-17--------------------------------||--------------------------------|-----------------------------------------||--------------------------------|-----------------------------------------|
|----------------15---13p12-------||-------------15------------13----||----------15------------------12-||-15p14-17------------------------||---------------------------------||---------------------------------|
|-----------------------------------------------------------------||-11p10----------------12p8---13p10----15p12----17p13----18p15----||-------10------------------9-------12-------14-------15-------13-||----------10-----------------------------------------------------||-------------12--------------------------------------------------||----------------12/13--------------------------------------------|
00:12|----------------15--13p12-------|----------------15--13p12-15h17-15-------||-------------15-----------13----|-------------15--------------------15h17-||----------15-----------------12-|----------15-----------------------------||-15p14-17-----------------------|-15p14-17--------------------------------||--------------------------------|-----------------------------------------||--------------------------------|-----------------------------------------|
|----------------15---13p12-------||-------------15------------13----||----------15------------------12-||-15p14-17------------------------||---------------------------------||---------------------------------|
|-----------------------------------------------------------------||-11p10----------------12p8---13p10----15p12----17p13----18p15----||-------10------------------9-------12-------14-------15-------13-||----------10-----------------------------------------------------||-------------12--------------------------------------------------||----------------12/13--------------------------------------------|
00:24|----------------15--13p12-------|----------------15--13p12-15h17-15-------||-------------15-----------13----|-------------15--------------------15h17-||----------15-----------------12-|----------15-----------------------------||-15p14-17-----------------------|-15p14-17--------------------------------||--------------------------------|-----------------------------------------||--------------------------------|-----------------------------------------|
|----------------15---13p12-------||-------------15------------13----||----------15------------------12-||-15p14-17------------------------||---------------------------------||---------------------------------|
|--------------------------------------------------------||-11p10----------------12p8---13p10----15p12----17p13----||-------10------------------9-------12-------14-------15-||----------10--------------------------------------------||-------------12-----------------------------------------||----------------12/13-----------------------------------|
00:36|---------------------------------------------------------||---------------------------------------------------------||---------------------------------------------------------||-----------7--5--4h5p4--------------4--2--0--------------||-----0h2----------------------0h2------------------0h2---||-0h2----------------------0h2------------------0h2-----0-|
E B Long distance runaround|------------------------------------------||------------------------------------------||------------------2h4---------------2h4---||--------------2h4---------------2h4-----2-||------------------------------------------||------------------------------------------|
E B Long time waiting to feel the sound ~|--------------------------------------------~----------||--------------------------------------------~----------||--------------2h4---------------------2h4---~------2h4-||----------2h4---------------------2h4-------~--2h4-----||--------------------------------------------~----------||--------------------------------------------~----------|
B G I still remember the dream there|-----------------------------------------------||-----------------------------------------------||---------------------2h4---------------2h4---0-||-----------------2h4---------------2h4---------||-----------------------------------------------||-----------------------------------------------|
G I still remember the time you said goodbye|-----------------------||-----------------------||---------------------0-||-----------------0h2---||-----------------------||-----------------------|
C Bm Am Did we really tell lies G F letting in the sunshine E C Did we really count to one hundred
|----------------13---11p10-------|----------------13---11p10-------||-------------13------------11----|-------------13------------11----||----------14------------------10-|----------14------------------10-||-14p12-16------------------------|-14p12-16------------------------||---------------------------------|---------------------------------||---------------------------------|---------------------------------|
01:42 C Bm Am Did we really tell lies G F letting in the sunshine E C Did we really count to one hundred During 01:42:
|----------------15---13p12-------|----------------15---13p12-------||-------------15------------13----|-------------15------------13----||----------15------------------12-|----------15------------------12-||-15p14-17------------------------|-15p14-17------------------------||---------------------------------|---------------------------------||---------------------------------|---------------------------------|
|----------------13---11p10-------|----------------13---11p10-------||-------------13------------11----|-------------13------------11----||----------14------------------10-|----------14------------------10-||-14p12-16------------------------|-14p12-16------------------------||---------------------------------|---------------------------------||---------------------------------|---------------------------------|
E B Long distance runaround|------------------------------------------||------------------------------------------||------------------2h4---------------2h4---||--------------2h4---------------2h4-----2-||------------------------------------------||------------------------------------------|
E B Long time waiting to feel the sound ~|--------------------------------------------~----------||--------------------------------------------~----------||--------------2h4---------------------2h4---~------2h4-||----------2h4---------------------2h4-------~--2h4-----||--------------------------------------------~----------||--------------------------------------------~----------|
B G I still remember the dream there|-----------------------------------------------||-----------------------------------------------||---------------------2h4---------------2h4---0-||-----------------2h4---------------2h4---------||-----------------------------------------------||-----------------------------------------------|
G I still remember the time you said goodbye|------------------------------------------------||------------------------------------------------||---------------------0----------------------2h4-||-----------------0h2--------------------2h4-----||------------------------------------------------||------------------------------------------------|
|----------------15--13p12-------|----------------15--13p12-15h17-15-------||-------------15-----------13----|-------------15--------------------15h17-||----------15-----------------12-|----------15-----------------------------||-15p14-17-----------------------|-15p14-17--------------------------------||--------------------------------|-----------------------------------------||--------------------------------|-----------------------------------------|
|----------------15---13p12-------||-------------15------------13----||----------15------------------12-||-15p14-17------------------------||---------------------------------||---------------------------------|
|-----------------------------------------------------------------||-11p10----------------12p8---13p10----15p12----17p13----18p15----||-------10------------------9-------12-------14-------15-------13-||----------10-----------------------------------------------------||-------------12--------------------------------------------------||----------------12/13--------------------------------------------|
Outro:|--------------------------------------------||-13p12-------15p14-------17p16-14-16--3-/10-||-------12----------14-----------------2-/9--||----------14----------16--------------0-/7--||--------------------------------------------||--------------------------------------------|
|----------------------------------------12-14-16--12-14-16-||---------------------12-14-16--12-14-16--------------------||-13-14-16--13-14-16----------------------------------------||-----------------------------------------------------------||-----------------------------------------------------------||-----------------------------------------------------------|
|-14-16-17--14-16-17--16-17-19-p17p16-------------------------||-------------------------------------19-17-16----------16-17-||----------------------------------------------16-16-18-------||-------------------------------------------------------------||-------------------------------------------------------------||-------------------------------------------------------------|
|-16p14p12----------||----------16-12-16-||-------------------||-------------------||-------------------||-------------------|
_____________________________________________________________________________ _____________________________________________________________________________ _____________________________________________________________________________ The Fish (Schindleria Praematurus) (Chris Squire) YES har=harmonic note
intro:|-14p12----12-14p12----12-14p12----12-14p12----||-------16----------16----------16----------16-||----------------------------------------------||----------------------------------------------||----------------------------------------------||----------------------------------------------|
Chorus (This is really for bass, but can also be played on guitar):|------------------------------------||------------------------------------||-------------12har------------19har-||---------12har------------19har-----||-----12har------------19har---------||-12har------------19har-------------|
Later, a second bass line does this:|--------------------------------------------||--------------------------------------------||--------------------------------------------||------12har--12har-12har-------19har--19har-||------12har--12har-12har-------19har--19har-||-12har-------------------19har--------------|
Guitar 1:|--------------------------------------------------------||--------------------------------------------------------||--------------------------------------------------------||-12---11-9--11--9--7-9---7-5-7--5-4-5--4-2---0--2--4--4-||-14---12-10-12--10-9-10--9-7-9--7-5-7--5-4---2--4--5--5-||--------------------------------------------------------|
Right after Guitar 1, Guitar 2 does this:|---------------------------------------------||---------------------------------------------||---------------------------------------------||-12p9--9-9-9\7--7-7-7\5--5-5-5\4--4-4-4\2--0-||---------------------------------------------||---------------------------------------------|
That's all that I know of The Fish. It's almost impossible to tab the whole thing because there are about ten bass lines all together.
Tap to rate this tab
 
# A B C D E F G H I J K L M N O P Q R S T U V W X Y Z