Yngwie Malmsteen - Spasebo Blues tab

Track:  Spasebo Blues
Artist: Yngwie Malmsteen
Album:  Live in Leningrad

Guitar 1 [Eb ab db gb bb eb] half step down

~ - vibrato
/ - slide up
\ - slide down
h - hammer on
p - pull off
b - bend to note indicated
w - whammy bar dive
T - tap note this is above
X/ - slide up from wherever
PH - Pinch harmonic
*12* - natural harmonic

All I can say about this tab is attention to detail.  There's so much that this
tab 
and if you miss something it'll mess up the entire song basically.  So, PAY
ATTENTION!  I'm 
sure, but I think the whole first bar is vibrated with the whammy.  But I do know
for certain that all of it's notes

are vibrated:

~~~~~~~~~~~~~~~~~~~~~~~~~~~~~~~~~~~~~~~~~~~~~~~~~~~~~~~~~~~~~~~~~~~~~~~~~~~~~~-||------9-----------9-----------9-------------8-----------8---------------------8-||------------8-----------8-----------8-------------7-----------7-------7---------||-8/9-----9-----9-----9-----9-----9-----9\8-----8-----8-----8-----9\8-----9\8----||--------------------------------------------------------------------------------||--------------------------------------------------------------------------------||--------------------------------------------------------------------------------|
|----------5-8b(9)----8-5-------------------5-----------------------------------||-8----5h7----------------8p5-8-5---------------------------------------17b(19)-||-9-------------------------------7-7p5---5------7-5b(7)rb(7)r-------14---------||---------------------------------------7----------------------14/16------------||-------------------------------------------------------------------------------||-------------------------------------------------------------------------------|
|--------------------------------------------------------||----r-14------------------------------19h20p19p17-------||---------17----14-17-14b(16)rb(17)r\--------------19-17-||------------16------------------------------------------||--------------------------------------------------------||--------------------------------------------------------|
Full pre bended 20's V v|----17-----------------------5-8b(9)rb(9)r-5---5-7-8-10-7-8-10-12-||---------------------------------------------8--------------------||-18----(22)--20b(22)-(22)r/---------------------------------------||------------------------------------------------------------------||------------------------------------------------------------------||------------------------------------------------------------------|
|-7h8h10-12-13-12-10-8---12p10-8p7-10-8p7--------------------||-----------------------------------------8b(10)rb(10)rb(10)-||------------------------------------------------------------||------------------------------------------------------------||------------------------------------------------------------||------------------------------------------------------------|
|--5-8-5------5---------------------------------------------------------------||--------5-8----5-------------------------------------------------------------||-----------------8-7-5--7-5--------------------------------------------------||----------------------------7----------4b(5)b(7)r(5)b(7)r(5)b(7)r(5)b(7)r(5)-||------------------------------6--5-------------------------------------------||-----------------------------------8-5---------------------------------------|
|----------------------------------------------------||----------------------------------------------------||--------17-16-15-14----14---------------------------||-----14-------------17----17-----14b(16)rb(16)r-14\-||-/16-------------------------16---------------------||----------------------------------------------------|
|-7-----------------------------------------------------------------||---8---------------------------------------------------------------||-----9-8-7-5b(7)r-------------------5-9-8-7------------------------||------------------7----------5-5--7---------10b(12)rb(12)rb(12)-10-||--------------------7-5-3-5/---------------------------------------||-------------------------------------------------------------------|
|-12-11-10----------------17b(18)rb(18)r------||----------13b(15)r(15)r\----------------*12*-||---------------------------------------------||---------------------------------------------||---------------------------------------------||---------------------------------------------|
T T T T T T T T|-17p12h15-17p12h13-17p12h13-17p12h13-17p11h14-17p11h14-17p11h14-17p11h14-17p11-||-------------------------------------------------------------------------------||-------------------------------------------------------------------------------||-------------------------------------------------------------------------------||-------------------------------------------------------------------------------||-------------------------------------------------------------------------------|
T T T T T|-17p11-17p10-17p9-17p10-17p12-----------------||----------------------------------------------||----------------------------------------------||----------------------------------------------||----------------------------------------------||-------------------------------0w\2/1 1/2/1/0-|
|-17b(18)rb(18)rb(18)rb(18)-(18)rb(18)-14-17-20b(21)b(22)-||---------------------------------------------------------||---------------------------------------------------------||---------------------------------------------------------||---------------------------------------------------------||---------------------------------------------------------|
|-------12-------------------------------------12---------||-20\13----13---------------------15b(16)b(17)----15b(17)-||-------------14---14b(16)rb(16)r-------------------------||---------------------------------------------------------||---------------------------------------------------------||---------------------------------------------------------|
|-12-12--17----12-17----12-17----12-17----12-17----12-17----12-16----12-16-0-||-----------15-------15-------15-------15-------15-------15-------14---------||----------------------------------------------------------------------------||----------------------------------------------------------------------------||----------------------------------------------------------------------------||----------------------------------------------------------------------------|
|----------12-12---------12------------------------||-------14-------15b(17)----15b(17)-(17)r-13~~~----||-14-16-----------------------------------------14-||--------------------------------------------------||--------------------------------------------------||--------------------------------------------------|
|---------12------------------------------||-13b(14)----(14)r------------------------||------------------14-14b(16)rb(16)rb(16)-||-----------------------------------------||-----------------------------------------||-----------------------------------------|
Pre bent 8's PH v v|-0-5-----5-5---------------5--------5-------------------5------||-----5h7-----7p5-------5h8---(10)-----(10)-8b(10)rb(10)-8b(10)-||-----------------7-5-6-----------------------------------------||---------------------------------------------------------------||---------------------------------------------------------------||---------------------------------------------------------------|
|-5------------------------------------------------------16b(17)-||----13b(14)b(15)(15)----------------------13b(14)---------------||---------------------14b(16)rb(16)rb(16)r---------14------------||-----------------------------------------------------14---------||----------------------------------------------------------------||----------------------------------------------------------------|
|-16-17-----------------------------------------------||-------15~-14----15-13-------------------------------||--------------14-------14----12----------------------||--------------------------13----13-14-13-------12----||-----------------------------------------15-12----15-||-----------------------------------------------------|
|----------------------------------------------||----------------------------------------------||----------------------------------------------||----------------------------------------------||-12b(14)~rb(14)rb(14)r--b(14)rb(14)rb(14)r-12-||----------------------------------------------|
|---------------------------------------------------------------||-------------------------------------------------22----20b(22)-||----------14-17-14-17-b(18)--r-14----14b(16)-/21----21---------||-------14-------------------------16---------------------------||-12-16---------------------------------------------------------||---------------------------------------------------------------|
|---------------------------------------------------------------||-(22)--(22)rb(22)rb(22)rb(22)-22-20b(22)---22----20---------22-||----------------------------------------------21----19b(20)----||---------------------------------------------------------------||---------------------------------------------------------------||---------------------------------------------------------------|
Pre bent 20's v v v|-----------------------------------||----------22-(22)~-(22)~-(22)~-----||-19----18----------------------19\-||----22-----------------------------||-----------------------------------||-----------------------------------|
|-----7--------------------------------------------------||-5h8---8-5-----------------5-7-----5-5b(7)r-------------||-----------8-7-5-7---7-5-7-------7----------7b(9)rb(9)r-||-------------------7------------------------------------||--------------------------------------------------------||--------------------------------------------------------|
|-12\11-10-------11/12\10----12-\11-\10-10-11-12-11-10-------12-10-||----------13-10----------10---------------------------12-10-------||------------------------------------------------------------------||------------------------------------------------------------------||------------------------------------------------------------------||------------------------------------------------------------------|
|-10--------------------------15/17-17-17-17\-||----13b(15)rb(15)rb(15)-13\------------------||---------------------------------------------||---------------------------------------------||---------------------------------------------||---------------------------------------------|
|-----17-17-15-14-15-14-12----14-12-10----12-10-9----10-9-7----8-7-5---7-5---------||-/15----------------------15----------14---------12--------10-------8-----8-8p7-5-||----------------------------------------------------------------------------------||----------------------------------------------------------------------------------||----------------------------------------------------------------------------------||----------------------------------------------------------------------------------|
Pre bent 8's v v Feedback--------------------||--------------------------------------------------------------------------------------------||-(10)-(10)-8p7-5-5--------------------------------------------------------------------------||-------------------7-5-4~~---------------X/4-4/14/16w\1/1\1/1-16w\1/1-16~-16w/ 1/2 / -------||--------------------------------------------------------------------------------------------||------------------------------5-3-2b(4)-----------------------------------------------------||----------------------------5-------------------------------------------------------------X-|
There ya go! myspace.com/solustheband
Tap to rate this tab
 
# A B C D E F G H I J K L M N O P Q R S T U V W X Y Z