Yngwie Malmsteen – Fugetta tab

Fuguetta
from album: Unleash the fury
Artist: Yngwie malmsteen
Tuning: 1/2 step down

tabbed by Empo


(A)

Guitar 1:|-----7--------------|-----------------|-----------------------------||--------8----7h8p7--|----8-7-----7----|--------7----8-7h8p7---7-----||--9-----------------|--9-----9-8------|--9------------------9-------||--------------------|--------------9--|-----9-----9--------------9--||--------------------|-----------------|-----------------------------||--------------------|-----------------|-----------------------------|
|----------------------------------7----|-------------------------------7-9--||---------7----7--8-7h8p7---7--------9--|--8-7---8-7-----7-------7-8-10------||--9----9-----------------9----9--------|------9-----9-8---9---9-------------||-----9------9--------------------------|--------------------9---------------||---------------------------------------|------------------------------------||---------------------------------------|------------------------------------|
(B)
Guitar 1:|--10-9-7-10-9-7-6-9-7-----7--7-9--|--10--10--12-12h14tr--14-12-14-15-14-12--------||-----------------------7----------|----------------------------------------15-14--||----------------------------------|-----------------------------------------------||----------------------------------|-----------------------------------------------||----------------------------------|-----------------------------------------------||----------------------------------|-----------------------------------------------|
| |
|Guitar 2:|---------14-----------------------|-----------------------------------------------||--------------15--------------14--|-------15---14------------------14-------------||--16------------------------------|--16-------------16-----15---------------------||----------------------------------|---------------------------------------16------||----------------------------------|-----------------------------------------------||----------------------------------|-----------------------------------------------|
|-----14-12-14----14-12-14----14-12-14----14-12-14--||--15----------14----------15----------14-----------||---------------------------------------------------||---------------------------------------------------||---------------------------------------------------||---------------------------------------------------|
| | |
|---------------------------------------------------||------------------14-----------15-14--------14-----||---16--------------------------------16------------||-----------16----------16----------------------16--||---------------------------------------------------||---------------------------------------------------|
|--------------12----------14----------12----14-12--||--15-12-11-12----12-11-12----12-11-12----12--------||---------------------------------------------------||---------------------------------------------------||---------------------------------------------------||---------------------------------------------------|
| | |
|---------------------------------------------------||-----------14-----14--15---14------14-------15-14--||--16----16---------------------16------16----------||-----16--------16----------------------------------||---------------------------------------------------||---------------------------------------------------|
|------------------------------------------|-------------------||--15-14-12-15-14-12-11-14-12--------------|-------------------||------------------------------12--11------|-------------------||--------------------------------------14--|--12--11--9--------||------------------------------------------|-------------------||------------------------------------------|-------------------|
| | |
|------------------------------------------|-------------------||--12---------12---------------------------|-------------------||------14--12----14--12---11-----11h12tr---|--12---------------||----------------------------15------------|------14--12-------||------------------------------------------|-------------------||------------------------------------------|-------------------|
|-----7--------------|-----------------|-----------------------------||--------8----7h8p7--|----8-7-----7----|--------7----8-7h8p7---7-----||--9-----------------|--9-----9-8------|--9------------------9-------||--------------------|--------------9--|-----9-----9--------------9--||--------------------|-----------------|-----------------------------||--------------------|-----------------|-----------------------------|
|----------------------------------7----|-------------------------------7-9--||---------7----7--8-7h8p7---7--------9--|--8-7---8-7-----7-------7-8-10------||--9----9-----------------9----9--------|------9-----9-8---9---9-------------||-----9------9--------------------------|--------------------9---------------||---------------------------------------|------------------------------------||---------------------------------------|------------------------------------|
|--10-9-7-10-9-7-6-9-7-----7--7-9--|--10--10--12-12h14tr--14-12-14-15-14-12--------||-----------------------7----------|----------------------------------------15-14--||----------------------------------|-----------------------------------------------||----------------------------------|-----------------------------------------------||----------------------------------|-----------------------------------------------||----------------------------------|-----------------------------------------------|
| | |
|---------14-----------------------|-----------------------------------------------||--------------15--------------14--|-------15---14------------------14-------------||--16------------------------------|--16-------------16-----15---------------------||----------------------------------|---------------------------------------16------||----------------------------------|-----------------------------------------------||----------------------------------|-----------------------------------------------|
|-----14-12-14----14-12-14----14-12-14----14-12-14--||--15----------14----------15----------14-----------||---------------------------------------------------||---------------------------------------------------||---------------------------------------------------||---------------------------------------------------|
| | |
|---------------------------------------------------||------------------14-----------15-14--------14-----||---16--------------------------------16------------||-----------16----------16----------------------16--||---------------------------------------------------||---------------------------------------------------|
|--------------12----------14----------12----14-12--||--15-12-11-12----12-11-12----12-11-12----12--------||---------------------------------------------------||---------------------------------------------------||---------------------------------------------------||---------------------------------------------------|
| | |
|---------------------------------------------------||-----------14-----14--15---14------14-------15-14--||--16----16---------------------16------16----------||-----16--------16----------------------------------||---------------------------------------------------||---------------------------------------------------|
|------------------------------------------|-------------------||--15-14-12-15-14-12-11-14-12--------------|-------------------||------------------------------12--11------|-------------------||--------------------------------------14--|--12--11--9--------||------------------------------------------|-------------------||------------------------------------------|-------------------|
| | |
|------------------------------------------|-------------------||--12---------12---------------------------|-------------------||------14--12----14--12---11-----11h12tr---|--12---------------||----------------------------15------------|------14--12-------||------------------------------------------|-------------------||------------------------------------------|-------------------|
(Notice: Guitar 1 repeats once Part (A).)
Guitar 2:|--------------------------------|--------5--5h7tr---7-5-7-8-7-5-------||--8-7-5-8-7-5-4-7-5-----5--5-7--|--8--8--------------------------8-7--||---------------------4----------|-------------------------------------||--------------------------------|-------------------------------------||--------------------------------|-------------------------------------||--------------------------------|-------------------------------------|
|----7-5-7---7-5-7---7-5-7---7-5-7--|-------------------7------------7-----||--8-------4-------5-------4--------|--8-------10---------------10-----10--||-----------------------------------|----9-8-9----9-8-9---9-8-9----9-------||-----------------------------------|--------------------------------------||-----------------------------------|--------------------------------------||-----------------------------------|--------------------------------------|
|-------------------------------7-9--||--8-7---8-7-----7-------7-8-10------||------9-----9-8---9---9-------------||--------------------9---------------||------------------------------------||------------------------------------|
(B)
Guitar 1:|--10-9-7-10-9-7-6-9-7-----7--7-9--|--10--10--12-12h14tr--14-12-14-15-14-12--------||-----------------------7----------|----------------------------------------15-14--||----------------------------------|-----------------------------------------------||----------------------------------|-----------------------------------------------||----------------------------------|-----------------------------------------------||----------------------------------|-----------------------------------------------|
| |
|Guitar 2:|---------14-----------------------|-----------------------------------------------||--------------15--------------14--|-------15---14------------------14-------------||--16------------------------------|--16-------------16-----15---------------------||----------------------------------|---------------------------------------16------||----------------------------------|-----------------------------------------------||----------------------------------|-----------------------------------------------|
|-----14-12-14----14-12-14----14-12-14----14-12-14--||--15----------14----------15----------14-----------||---------------------------------------------------||---------------------------------------------------||---------------------------------------------------||---------------------------------------------------|
| | |
|---------------------------------------------------||------------------14-----------15-14--------14-----||---16--------------------------------16------------||-----------16----------16----------------------16--||---------------------------------------------------||---------------------------------------------------|
|--------------12----------14----------12----14-12--||--15-12-11-12----12-11-12----12-11-12----12--------||---------------------------------------------------||---------------------------------------------------||---------------------------------------------------||---------------------------------------------------|
| | |
|---------------------------------------------------||-----------14-----14--15---14------14-------15-14--||--16----16---------------------16------16----------||-----16--------16----------------------------------||---------------------------------------------------||---------------------------------------------------|
|------------------------------------------|-------------------||--15-14-12-15-14-12-11-14-12--------------|-------------------||------------------------------12--11------|-------------------||--------------------------------------14--|--12--11--9--------||------------------------------------------|-------------------||------------------------------------------|-------------------|
| | |
|------------------------------------------|-------------------||--12---------12---------------------------|-------------------||------14--12----14--12---11-----11h12tr---|--12---------------||----------------------------15------------|------14--12-------||------------------------------------------|-------------------||------------------------------------------|-------------------|
|-----7--------------|-----------------|-----------------------------||--------8----7h8p7--|----8-7-----7----|--------7----8-7h8p7---7-----||--9-----------------|--9-----9-8------|--9------------------9-------||--------------------|--------------9--|-----9-----9--------------9--||--------------------|-----------------|-----------------------------||--------------------|-----------------|-----------------------------|
|----------------------------------7----|-------------------------------7-9--||---------7----7--8-7h8p7---7--------9--|--8-7---8-7-----7-------7-8-10------||--9----9-----------------9----9--------|------9-----9-8---9---9-------------||-----9------9--------------------------|--------------------9---------------||---------------------------------------|------------------------------------||---------------------------------------|------------------------------------|
|--10-9-7-10-9-7-6-9-7-----7--7-9--|--10--10--12-12h14tr--14-12-14-15-14-12--------||-----------------------7----------|----------------------------------------15-14--||----------------------------------|-----------------------------------------------||----------------------------------|-----------------------------------------------||----------------------------------|-----------------------------------------------||----------------------------------|-----------------------------------------------|
| | |
|---------14-----------------------|-----------------------------------------------||--------------15--------------14--|-------15---14------------------14-------------||--16------------------------------|--16-------------16-----15---------------------||----------------------------------|---------------------------------------16------||----------------------------------|-----------------------------------------------||----------------------------------|-----------------------------------------------|
|-----14-12-14----14-12-14----14-12-14----14-12-14--||--15----------14----------15----------14-----------||---------------------------------------------------||---------------------------------------------------||---------------------------------------------------||---------------------------------------------------|
| | |
|---------------------------------------------------||------------------14-----------15-14--------14-----||---16--------------------------------16------------||-----------16----------16----------------------16--||---------------------------------------------------||---------------------------------------------------|
|--------------12----------14----------12----14-12--||--15-12-11-12----12-11-12----12-11-12----12--------||---------------------------------------------------||---------------------------------------------------||---------------------------------------------------||---------------------------------------------------|
| | |
|---------------------------------------------------||-----------14-----14--15---14------14-------17-15--||--16----16---------------------16------16----------||-----16--------16----------------------------------||---------------------------------------------------||---------------------------------------------------|
(C)
|------------------------------------------|-----------------------------------||--15-14-12-15-14-12-11-14-12-------12-11--|--12----------10-8-10---------8-7--||------------------------------------------|-----12-11-12---------11-9-11------||------------------------------------------|-----------------------------------||------------------------------------------|-----------------------------------||------------------------------------------|-----------------------------------|
| | |
|--14-------14-----------------------10-9--|--10------------9-7-9---------7-6--||-----17-15----17-15-14-17-15--------------|-------12-10-12-------10-8-10------||------------------------------------------|-----------------------------------||------------------------------------------|-----------------------------------||------------------------------------------|-----------------------------------||------------------------------------------|-----------------------------------|
|--------------------------------|------------------------------------||--8-------7-6-7-----------------|----------------------------7h9h11--||----9-7-9-------7-6-7------9-7--|--9-7-6-----------------7-9---------||--------------------------------|--------9-8----9-8-9-11-------------||--------------------------------|------------------------------------||--------------------------------|------------------------------------|
| | |
|--7-------6-4-6-----------------|------------------------------------||----8-7-8-------7-5-7------5-7--|--8-7-5-----------------------------||--------------------------------|--------7-6h7tr---------------------||--------------------------------|------------------------------------||--------------------------------|------------------------------------||--------------------------------|------------------------------------|
|--7----6--7---------------------|----------------------------------------||-------7--7---------------------|----------------------------------------||-------6--7---------------------|----------------------------------------||-------8--9---------------------|----------------------------------------||----------9---------------------|----------------------------------------||--------------------------------|----------------------------------------|
| | |
|------------------------9h10p9--|--7-------------------------------------||--------------------------------|-----7-----7----------------------------||--------------------------------|--------7-------------------------------||--------------------------------|--------------11\9------9---------------||--------------------------------|--------------------10-----9\7/9--------||--------------------------------|----------------------------------7-----|
Please rate this tab:
x1.0