Yngwie Malmsteen - Baroque And Roll tab

Yngwie Malmesteen
Baroque And Roll

Guitar 1 (Main):

D||-------------------------|-------------------------8-10-12-|A||----------------13-12-10-|--9~-----9-10-12-10~-------------|F||-------------------------|---------------------------------|C||-------------------------|---------------------------------|G||-------------------------|---------------------------------|D||-------------------------|---------------------------------|
--13~-----10-12-13-12~-----8-10-12-|-----------------------------------|-----------------------------------|-----------------------------------|-----------------------------------|-----------------------------------|
--10h12-10h12-10h12p10h12p10h12p10-7-8-10-8~-----5-7-8-|-------------------------------------------------------|-------------------------------------------------------|-------------------------------------------------------|-------------------------------------------------------|-------------------------------------------------------|
--7~-----4-5-7-5~--------------|-------------------------8-10-12-|----------------------13-12-10-|--9~-----9-10-12-10~-------------|-------------------------------|---------------------------------|-------------------------------|---------------------------------|-------------------------------|---------------------------------|-------------------------------|---------------------------------|
--13~-----10-12-13-12~-----8-10-12-|-----------------------------------|-----------------------------------|-----------------------------------|-----------------------------------|-----------------------------------|
--10h12-10h12-10h12p10h12p10h12p10-7-8-10-8~-----5-7-8-|-------------------------------------------------------|-------------------------------------------------------|-------------------------------------------------------|-------------------------------------------------------|-------------------------------------------------------|
--7~-----4-5-7-5~-----7-4-5-7-|------------------------------|------------------------------|------------------------------|------------------------------|------------------------------|
--8-5-7-8-10-7-8-10-12-8-10-12-13-10-12-13-15-12-13-15-17-13-15-17-19-15-17-19-2----------------------------------------------------------------------------------------------------------------------------------------------------------------------------------------------------------------------------------------------------------------------------------------------------------------------------------------------------------------------------------------------------------------
-----------------------------------------------------12-17p12---------------------18-17-15----------------------------------------13----------13---------------------------17-16-14-13-------------------------14----------------14------------------------------------15-14-12-------------14----------------------14-10---------------------------------------15-14-12-15-------------------------------15~12---------------------------------------------------------------------------------
-----------10-12-13---13-12-10----------12-10-12-8-12-7-12----12---12-|--10-12-13----------9----------13-12-10--------------------10----9----|----------------------------------------------------------------------|----------------------------------------------------------------------|----------------------------------------------------------------------|----------------------------------------------------------------------|
-----------10-12-13---13-12-10----------17-15-13----------------13-15-17-|--10-12-13----------9----------13-12-10----------17-15-13-15-17----------|-------------------------------------------------------------------------|-------------------------------------------------------------------------|-------------------------------------------------------------------------|-------------------------------------------------------------------------|
-----------15-17-18----18-17-15----------17-15-17-13-17-12-17----17----17-|--15-17-18----------14----------18-17-15----------------------15----14----|--------------------------------------------------------------------------|--------------------------------------------------------------------------|--------------------------------------------------------------------------|--------------------------------------------------------------------------|
-----------15-17-18----18-17-15----------------------------------|--15-17-18----------14----------18-17-15h17-15h17-15h17-14-15~---|-----------------------------------------------------------------|-----------------------------------------------------------------|-----------------------------------------------------------------|-----------------------------------------------------------------|
--16p13----------13-13p10----------10-10p7--------7-7p4-------4-|--------15----15----------12----12---------9----9-------6---6---|-----------16----------------13--------------10-----------7-----|----------------------------------------------------------------|----------------------------------------------------------------|----------------------------------------------------------------|
-----------10-12-13---13-12-10----------12-10-12-8-12-7-12----12---12-|--10-12-13----------9----------13-12-10--------------------10----9----|----------------------------------------------------------------------|----------------------------------------------------------------------|----------------------------------------------------------------------|----------------------------------------------------------------------|
-----------10-12-13---13-12-10----------17-15-13----------------13-15-17-|--10-12-13----------9----------13-12-10----------17-15-13-15-17----------|-------------------------------------------------------------------------|-------------------------------------------------------------------------|-------------------------------------------------------------------------|-------------------------------------------------------------------------|
-----------15-17-18----18-17-15----------17-15-17-13-17-12-17----17----17-|--15-17-18----------14----------18-17-15----------------------15----14----|--------------------------------------------------------------------------|--------------------------------------------------------------------------|--------------------------------------------------------------------------|--------------------------------------------------------------------------|
-----------15-17-18----18-17-15----------------------------------|--15-17-18----------14----------18-17-15h17-15h17-15h17-14-15~---|-----------------------------------------------------------------|-----------------------------------------------------------------|-----------------------------------------------------------------|-----------------------------------------------------------------|
--16p13----------16/19p16----------19-16p13----------12-13~--------17-|--------15----15----------18----18----------15----15------------19----|-----------16----------------19----------------16------------20-------|----------------------------------------------------------------------|----------------------------------------------------------------------|----------------------------------------------------------------------|
--20p17----17p14----14p11----11p8----8p5---8/-20/-x--|--------19-------15-------13------10-----7-----------|-----------------------------------------------------|-----------------------------------------------------|-----------------------------------------------------|-----------------------------------------------------|
----------------------------|----------------------------|------------------12--13b---|--13~-----12--13--15--17b---|--14~-----13--14------------|----------------------------|----------------------------|----------------------------|----------------------------|----------------------------|----------------------------|----------------------------|
------------------15--17--19--|--18~-----17--18--------------|------------------------------|------------------------------|------------------------------|------------------------------|
--20~-----16h17p16p13p12----------------------------------------------------|-------------------------15-13-12-------------------------------------------|----------------------------------16-14-13-------------------------------13-|-------------------------------------------15-14-12----------------14-15----|----------------------------------------------------15-14-12-14-15----------|----------------------------------------------------------------------------|
----------------------------|----------------------------|------------------12--13b---|--13~-----12--13--15--17b---|--14~-----13--14------------|----------------------------|----------------------------|----------------------------|----------------------------|----------------------------|----------------------------|----------------------------|
-------------------------------------------15--17--19--|--18h20p18h20p18h20p18h20p18h20p18p17--18--------------|-------------------------------------------------------|-------------------------------------------------------|-------------------------------------------------------|-------------------------------------------------------|
--20~-----19h20p19p17p16----------------------------------------------------|-------------------------18-17-15----------------------------------15-17-18-|----------------------------------17-16-14----------------14-16-17----------|-------------------------------------------17-15-14-15-17-------------------|----------------------------------------------------------------------------|----------------------------------------------------------------------------|
--17~-----16--17--19--20b---|--20~-------20r---19--17--|----------------------------|--------------------------|----------------------------|--------------------------|----------------------------|--------------------------|----------------------------|--------------------------|----------------------------|--------------------------|
--19~-------17--19--20--21b-|--21~-----------21r---|----------------------------|----------------------|----------------------------|----------------------|----------------------------|----------------------|----------------------------|----------------------|----------------------------|----------------------|
--13-12-10-13-12-10-12-10-8-12-10-8-7-8-7-5-----------------------4-|--------------------------------------------8-6-5-----------3-5-6---|--------------------------------------------------5-4-2-4-5---------|--------------------------------------------------------------------|--------------------------------------------------------------------|--------------------------------------------------------------------|
--5--17-15-13-12-15-13-12-10-13-12-10-8-12-10-8-7-10-8-7-5-5h7p5h7p5h7p5-|-------------------------------------------------------------------------|-------------------------------------------------------------------------|-------------------------------------------------------------------------|-------------------------------------------------------------------------|-------------------------------------------------------------------------|
----17-15-13-12-15-13-12-10-13-12-10-8-12-10-8-7-10-8-7-5-5h7p5h7p5h7p5-|------------------------------------------------------------------------|------------------------------------------------------------------------|------------------------------------------------------------------------|------------------------------------------------------------------------|------------------------------------------------------------------------|
-------------10h12h13p12p10---------------------------------------|----10-12-13----------------13-12-10------------------------------|-------------------------------------12-10-9----------------------|---------------------------------------------12-10-9--------------|-----------------------------------------------------12-10-8-7~---|------------------------------------------------------------------|
----17-15-13-12-15-13-12-10-13-12-10-8-12-10-8-7-10-8-7-5-5h7p5h7p5h7p5-|------------------------------------------------------------------------|------------------------------------------------------------------------|------------------------------------------------------------------------|------------------------------------------------------------------------|------------------------------------------------------------------------|
--5p2-------2-8p5-------5-11p8----------8-14p11----------11-17~---|------4---4-------7---7--------10----10---------13----13----------|--------5-----------8-------------11---------------14-------------|------------------------------------------------------------------|------------------------------------------------------------------|------------------------------------------------------------------|
--20-16-17-19-20-19-17-16-20-16-17-19-20-19-17-16---------------------------------------------------------------------------------18-17-15---------------------------------------------------------------------------------17-14-13---------------------------------------------------------------------------------15-14-12---------------------------------------------------------------------------------15---------------------------------------------------------------------------------
------17-15-13-12-15-13-12-10-13-12-10-8-12-10-8-7-10-8-7-5-5h7p5h7p5h7p5h7h|----------------------------------------------------------------------------|----------------------------------------------------------------------------|----------------------------------------------------------------------------|--12/-----------------------------------------------------------------------|----------------------------------------------------------------------------|
----17-15-13-12-15-13-12-10-13-12-10-8-12-10-8-7-10-8-7-5-5h7p5h7p5h7p5-|------------------------------------------------------------------------|------------------------------------------------------------------------|------------------------------------------------------------------------|------------------------------------------------------------------------|------------------------------------------------------------------------|
-----------------------------10h12h13p12p10------------------------------------|--------------------10-12-13----------------13-12-10---------------------------|------------9-10-12----------------------------------12-10-9-------------------|----9-10-12--------------------------------------------------12-10-9-----------|---------------------------------------------------------------------12-10-8-7~|-------------------------------------------------------------------------------|
----17-15-13-12-15-13-12-10-13-12-10-8-12-10-8-7-10-8-7-5-5h7p5h7p5h7p5-|------------------------------------------------------------------------|------------------------------------------------------------------------|------------------------------------------------------------------------|------------------------------------------------------------------------|------------------------------------------------------------------------|
--20-16-17-19-20-19-17-16-20-16-17-19-20-19-17-16-20-16-17-19-20-19-17-16-20-16-----------------------------------------------------------------------------------------------------------------------------------------------------------------------------------------------------------------------------------------------------------------------------------------------------------------------------------------------------------------------------------------------------------------
--19p16----19/16-13----16/13p10----13/10p7---10/7p4---7/10p7---10/13p10----13-13--------17----------15----------12---------9--------6--------9----------12--------------------------------------------------------------------------------------------------------------------------------------------------------------------------------------------------------------------------------------------------------------------------------------------------------------------------------------
--13-10-12-13-12-10-12----10-12-10----10-------10------------------------------------------------------13----------13----12-13----13-12-13-10-12-13-12-10-12---------------------------------------------------------------------------------13-------------------------------------------------------------------------------------------------------------------------------------------------------------------------------------------------------------------------------------------------
------------------------------------------------------------------------|--8-10-8----------------------------------------------------------------|---------10-10-7-9-10-9-7-----------------------------------------------|--------------------------10-7-9-10-9-7-9-6-7-9-7-6---------------------|----------------------------------------------------8-5-7-8-7-5---------|----------------------------------------------------------------8-7-5-4-|
------------12-10-12-8-12-7-12-|-------------12-10-12-8-12-7-12-|-------------------------------|--10~---------------------------|-------------------------------|--------------------------------|-------------------------------|--------------------------------|-------------------------------|--------------------------------|--5~---------------------------|--------------------------------|
-------------13-12-13-10-13-8-13-|-------------12-10-12-8-12-7-12-|--10~----------------------------|--12~---------------------------|---------------------------------|--------------------------------|---------------------------------|--------------------------------|---------------------------------|--------------------------------|---------------------------------|--------------------------------|
-------------11p8--------------|------------10p7------------|--10~-------------10-----------|-----------------9----------|---------------------11-8----8-|-------------------10-7---7-|--------------------------10---|--9~--------------------9---|-------------------------------|----------------------------|-------------------------------|----------------------------|
------------8p5-----------|------------7p4-----------|----------------7---------|----------------6---------|------------------8-5---5-|------------------7-4---4-|--7~------------------7---|--6~------------------6---|--------------------------|--------------------------|--------------------------|--------------------------|
--5-0-0-0-7-0-0-0-8-0-0-0-4-0-0-0-5-0-0-0-7-0-0-0-8-0-0-0-4-0-0-0-|------------------------------------------------------------------|------------------------------------------------------------------|------------------------------------------------------------------|------------------------------------------------------------------|------------------------------------------------------------------|
--5-0-0-0-7-0-0-0-8-0-0-0-16-0-0-0-16b-------|-----------12-10-12-8-12-7-12-|---------------------------------------------|------------------------------|---------------------------------------------|------------------------------|---------------------------------------------|------------------------------|---------------------------------------------|------------------------------|---------------------------------------------|------------------------------|
-------------12-10-12-8-12-7-12-|-------------13-12-13-10-13-8-13-|--10~---------------------------|--10~----------------------------|--------------------------------|---------------------------------|--------------------------------|---------------------------------|--------------------------------|---------------------------------|--------------------------------|---------------------------------|
-------------12-10-12-8-12-7-12-|-------------11p8--------------|--12~---------------------------|--10~-------------10-----------|--------------------------------|---------------------11-8----8-|--------------------------------|--------------------------10---|--------------------------------|-------------------------------|--------------------------------|-------------------------------|
------------10p7------------|------------8p5-----------|-----------------9----------|----------------7---------|-------------------10-7---7-|------------------8-5---5-|--9~--------------------9---|--7~------------------7---|----------------------------|--------------------------|----------------------------|--------------------------|
------------7p4-----------|----------------6---------|------------------7-4---4-|--6~------------------6---|--------------------------|--------------------------|
--5-0-0-0-7-0-0-0-8-0-0-0-4-0-0-0-5-0-0-0-7-0-0-0-8-0-0-0-4-0-0-0-|------------------------------------------------------------------|------------------------------------------------------------------|------------------------------------------------------------------|------------------------------------------------------------------|------------------------------------------------------------------|
--5-0-0-0-7-0-0-0-8-0-0-0-16-0-0-0-16b-------|---------------------------------------------|---------------------------------------------|---------------------------------------------|---------------------------------------------|---------------------------------------------|
--20p17----20-17p13----13-19p15----19/13p12----12-17p13----17/13-10----10-15p12---------17----------13----------15----------14----------15----------12------------------------------------------------------------------------------------------------------------------------------------------------------------------------------------------------------------------------------------------------------------------------------------------------------------------------------------------
--13p10----13/10p7---7-12p8----12/10p7----10-12h13p12p10------------------|--------12---------9--------10---------10----------------13-12-10-9-10~---|--------------------------------------------------------------------------|--------------------------------------------------------------------------|--------------------------------------------------------------------------|--------------------------------------------------------------------------|
--20p17----20p17-13----13-19p15----19/13p12----12-17p13----17/13-10----10-15p12---------17----------13----------15----------14----------15----------12------------------------------------------------------------------------------------------------------------------------------------------------------------------------------------------------------------------------------------------------------------------------------------------------------------------------------------------
--13p10----13/10p7---7-12p8----12/13~-12h13p12p10------------------|--------12---------9--------10--------------------13-12-10-9-10~---|-------------------------------------------------------------------|-------------------------------------------------------------------|-------------------------------------------------------------------|-------------------------------------------------------------------|
--8-5-7-8-10-7-8-10-12-8-10-12-13-10-12-13-15-12-13-15-17-13-15-17-19-15-17-19-2----------------------------------------------------------------------------------------------------------------------------------------------------------------------------------------------------------------------------------------------------------------------------------------------------------------------------------------------------------------------------------------------------------------
----------------------------------------------------------------|--18-17-15------------------------------------------------------|-----------17-16-14-13------------------------------------------|-----------------------15-14-12---------------------------------|--------------------------------15-14-12-11-12-14-12~--11-12~---|----------------------------------------------------------------|
--8-5-7-8-10-7-8-10-12-8-10-12-13-10-12-13-15-12-13-15-17-13-15-17-19-15-17-19-2----------------------------------------------------------------------------------------------------------------------------------------------------------------------------------------------------------------------------------------------------------------------------------------------------------------------------------------------------------------------------------------------------------------
--------------------------------------------------------------------12-17~---|--18-17-15-------------------------------------------------------13----------|-----------17-16-14-13----------------------------------------14-------------|-----------------------15-14-12----------------------------14----------------|--------------------------------15-14-12-11-12-14-12~12-15-------------------|-----------------------------------------------------------------------------|
16 beat break 4 beat breaks
------------------|------|------|------|------|------|------|------|------|------------------|------|------|------|------|------|------|------|------|------------------|------|------|------|------|------|------|------|------|------------------|------|------|------|------|------|------|------|------|------------------|------|------|------|------|------|------|------|------|------------------|------|------|------|------|------|------|------|------|
||||||||||||||||||||||||||||||||||||||||||||||||||||||||||||| | | | | | |||||||||||||||||||||||||||||| | | |||||||||||||||||||||||||||||| | | |||||||||||| SOLO |||||||||||| | | |||||||||||||||||||||||||||||| | | |||||||||||||||||||||||||||||| | | |
| |--------------------------------------------| | | |--------------------------------------------| |
| |-------------Really really fast|------------| | | |--------------------------------------------| | | |--------------------------------------------| | | | | | |||||||||||||||||||||||||||||||||||||||||||||||||||||||||||||
------|--17~-17--17~-17~-17~-17~-17~---------|------|--------------------------------------|------|--------------------------------------|------|--------------------------------------|------|--------------------------------------|------|--------------------------------------|
----21-21~-----21-19-17----------19~---|------------------------21-19-17-------|---------------------------------------|---------------------------------------|---------------------------------------|---------------------------------------|
--21-19-17-16-19-17-16-14-17-16-14-12-16-14-12-11-14-12-11-9-12-11-9/7-7~---|----------------------------------------------------------------------------|----------------------------------------------------------------------------|----------------------------------------------------------------------------|----------------------------------------------------------------------------|----------------------------------------------------------------------------|
--9-7-7b------7-------4-----------------|--------7b8-7---7-5-----7-5--4--2--4~---|--------------------6-------------------|----------------------------------------|----------------------------------------|----------------------------------------|
--------------------------------------------------|--------------------------------14----------16~---|--4-------4-----4~--6~-------13----13-------------|----4--6-----6----4-------14----------14----------|-----------------------16----------------16-------|--------------------------------------------------|
--21~21~--21-19-17-------------16-17-16-14---------------------------------------------------------21-19-17-16-------------17-16-14----------16-14-13---------------------------------------------------------------16-14-13----------14-13-11---------------------------------------------------------------------------------1----------------------------------------------------------------------------------------------------------------------------------------------------------------
--------------------------9-5-7-9-11-7-9-11-12-7-9-12-14-11-12-14-16-12-14-16-17--------------------10-12------------------------------------------------------------------11-13-14---------------------------------------------------------------13-11-13--------------------------------------------------------------------------------------------------------------------------------------------------------------------------------------------------------------------------------------
--21-19-17-16-19-17-16-14-17-16-14-12-14-16-12-12/-21b-----12-|--------------------------------------------------------------|--------------------------------------------------------------|--------------------------------------------------------------|--------------------------------------------------------------|--------------------------------------------------------------|
---------------------------------------------------------|------------21-------21-------21-------21-------21----21-|--19~----------19-21----19-21----19-21----19-21----19----|---------------------------------------------------------|---------------------------------------------------------|---------------------------------------------------------|
-----------------------------------------21b---------------------|-----------------------18----------------------18-17-15----------|--19~---------17-19-21----21-19-17----------------------17-16-14-|--------19-21----------------------21-19-------------------------|-----------------------------------------------------------------|-----------------------------------------------------------------|
--21b--------------------21b------19-17-16-13-17-16-|-------18-17-15-------------------------------------|----------------17-16-14----------------------------|----------------------------------------------------|----------------------------------------------------|----------------------------------------------------|
--13-12-16-13-12-10-13-12-10-8-12-10-8-7-10-8-7-8-10-12-13-12-10-8-7-5-12-12-12-----------------------------------------------------------------------------------------------------------------------------------------------------------------------------------------------------------------------------------------------------------------------------------------------------------------------------------------------------------------------------------------------------------------
--13-12-10---------------------------------------------------------------------------------13-12-10----10-12-10---------------------------------------------------------------------13----------13-10-9-8-9-10-9-------9-------------------------------------------------------------------------12-10---12-10-9-12-10-9---------------------------------------------------------------------------------11---------------------------------------------------------------------------------13-1
-------------------------------------------------------------------------------------------------------------------------------------------------------------------------------------------------------------------------------9-10-12-------9-1-----------9-------------------------------------10----9-10-12---------10-12------12-11-12---11-12-11----11-------------11-12-14----12------------------------------------------------13----13-10-12-13-----------------------------------------
-------------------------------------------------------12-13-16-12-13-16-17-16-1--12-9-10-12-13-10-12-13-15-12-13-15-17-13-15-17-18-15----------------------------------------------------------------------------------------------------------------------------------------------------------------------------------------------------------------------------------------------------------------------------------------------------------------------------------------------------------
--19-17-19-17-19-20-19-17-19-17-19-20-19-17-19-17-19-20-19-17-19-17-19-20-19-17-----------------------------------------------------------------------------------------------------------------------------------------------------------------------------------------------------------------------------------------------------------------------------------------------------------------------------------------------------------------------------------------------------------------
Continue guitar 1:
------|------|------|------|------|------|-------------------------|------|------|------|------|------|------|----------------13-12-10-|------|------|------|------|------|------|-------------------------|------|------|------|------|------|------|-------------------------|------|------|------|------|------|------|-------------------------|------|------|------|------|------|------|-------------------------|
-------------------------8-10-12-|--13~-----10-12-13-12~-----8-10-12-|--9~-----9-10-12-10~-------------|-----------------------------------|---------------------------------|-----------------------------------|---------------------------------|-----------------------------------|---------------------------------|-----------------------------------|---------------------------------|-----------------------------------|
--10h12-10h12-10h12p10h12p10h12p10-7-8-10-8~-----5-7-8-|-------------------------------------------------------|-------------------------------------------------------|-------------------------------------------------------|-------------------------------------------------------|-------------------------------------------------------|
--7~-----4-5-7-5~--------------|-------------------------8-10-12-|----------------------13-12-10-|--9~-----9-10-12-10~-------------|-------------------------------|---------------------------------|-------------------------------|---------------------------------|-------------------------------|---------------------------------|-------------------------------|---------------------------------|
--13~-----10-12-13-12~-----8-10-12-|-----------------------------------|-----------------------------------|-----------------------------------|-----------------------------------|-----------------------------------|
--10~-----7-8-10-8h10p8h10p8h10p8h10p8h10p8h10-5-7-8-|-----------------------------------------------------|-----------------------------------------------------|-----------------------------------------------------|-----------------------------------------------------|-----------------------------------------------------|
--7~-----4-5-7-5~-----7-4-5-7-|------------------------------|------------------------------|------------------------------|------------------------------|------------------------------|
--8-5-7-8-10-7-8-10-12-8-10-12-13-10-12-13-15-12-13-15-17-13-15-17-19-15-17-19-2----------------------------------------------------------------------------------------------------------------------------------------------------------------------------------------------------------------------------------------------------------------------------------------------------------------------------------------------------------------------------------------------------------------
----------------------------------------------------------12h17~----|--18-17-15---------------------------------------------13-----------|-----------17-16-14-13------------------------------14--------------|-----------------------15-14-12------------------14-----------------|--------------------------------15-14-12-11-12~---------------------|--------------------------------------------------------------------|
-----------10-12-13---13-12-10----------12-10-12-8-12-7-12----12---12-|--10-12-13----------9----------13-12-10--------------------10----9----|----------------------------------------------------------------------|----------------------------------------------------------------------|----------------------------------------------------------------------|----------------------------------------------------------------------|
-----------10-12-13---13-12-10----------17-15-13----------------13-15-17-|--10-12-13----------9----------13-12-10----------17-15-13-15-17----------|-------------------------------------------------------------------------|-------------------------------------------------------------------------|-------------------------------------------------------------------------|-------------------------------------------------------------------------|
-----------15-17-18----18-17-15----------17-15-17-13-17-12-17----17----17-|--15-17-18----------14----------18-17-15----------------------15----14----|--------------------------------------------------------------------------|--------------------------------------------------------------------------|--------------------------------------------------------------------------|--------------------------------------------------------------------------|
-----------15-17-18----18-17-15----------------------------------|--15-17-18----------14----------18-17-15h17-15h17-15h17-14-15~---|-----------------------------------------------------------------|-----------------------------------------------------------------|-----------------------------------------------------------------|-----------------------------------------------------------------|
--16p13----------13-13p10----------10-10p7--------7-7p4---12/--|--------15----15----------12----12---------9----9-------6------|-----------16----------------13--------------10----------------|---------------------------------------------------------------|---------------------------------------------------------------|---------------------------------------------------------------|
-----------10-12-13---13-12-10----------12-10-12-8-12-7-12----12---12-|--10-12-13----------9----------13-12-10--------------------10----9----|----------------------------------------------------------------------|----------------------------------------------------------------------|----------------------------------------------------------------------|----------------------------------------------------------------------|
-----------10-12-13---13-12-10----------17-15-13----------------13-15-17-|--10-12-13----------9----------13-12-10----------17-15-13-15-17----------|-------------------------------------------------------------------------|-------------------------------------------------------------------------|-------------------------------------------------------------------------|-------------------------------------------------------------------------|
-----------15-17-18----18-17-15----------17-15-17-13-17-12-17----17----17-|--15-17-18----------14----------18-17-15----------------------15----14----|--------------------------------------------------------------------------|--------------------------------------------------------------------------|--------------------------------------------------------------------------|--------------------------------------------------------------------------|
-----------15-17-18----18-17-15----------------------------------|--15-17-18----------14----------18-17-15h17-15h17-15h17-14-15~---|-----------------------------------------------------------------|-----------------------------------------------------------------|-----------------------------------------------------------------|-----------------------------------------------------------------|
--19p16----------16-16p13----------13-13p10----------13-10p7--------10-|--------18----18----------15----15----------12----12---------9----9----|-----------19----------------16----------------13--------------10------|-----------------------------------------------------------------------|-----------------------------------------------------------------------|-----------------------------------------------------------------------|
--20p17----17p14----14p11----11p8----8p5---8/-20/-x--|--------19-------15-------13------10-----7-----------|-----------------------------------------------------|-----------------------------------------------------|-----------------------------------------------------|-----------------------------------------------------|
----------------------------|----------------------------|------------------12--13b---|--13~-----12--13--15--17b---|--14~-----13--14------------|----------------------------|----------------------------|----------------------------|----------------------------|----------------------------|----------------------------|----------------------------|
------------------15--17--19--|--18~-----17--18--------------|------------------------------|------------------------------|------------------------------|------------------------------|
--20~-----16h17p16p13p12----------------------------------------------------|-------------------------15-13-12-------------------------------------------|----------------------------------16-14-13-------------------------------13-|-------------------------------------------15-14-12----------------14-15----|----------------------------------------------------15-14-12-14-15----------|----------------------------------------------------------------------------|
----------------------------|----------------------------|------------------12--13b---|--13~-----12--13--15--17b---|--14~-----13--14------------|----------------------------|----------------------------|----------------------------|----------------------------|----------------------------|----------------------------|----------------------------|
-------------------------------------------15--17--19--|--18h20p18h20p18h20p18h20p18h20p18p17--18--------------|-------------------------------------------------------|-------------------------------------------------------|-------------------------------------------------------|-------------------------------------------------------|
--20~-----20p19p17h20p19-17-19-17-16----------------------------|-------------------------------------18-17-15-18-17-15----------|-------------------------------------------------------16-14~13-|----------------------------------------------------------------|----------------------------------------------------------------|----------------------------------------------------------------|
--17~-----16--17--19--20b---|--20~-------20r---19--17--|----------------------------|--------------------------|----------------------------|--------------------------|----------------------------|--------------------------|----------------------------|--------------------------|----------------------------|--------------------------|
--19~-------17--19--20--21b-|--21~-----------21r---|----------------------------|----------------------|----------------------------|----------------------|----------------------------|----------------------|----------------------------|----------------------|----------------------------|----------------------|
--13-12-10-13-12-10-12-10-8-12-10-8-7-8-7-5-----------------------4-|--------------------------------------------8-6-5-----------3-5-6---|--------------------------------------------------5-4-2-4-5---------|--------------------------------------------------------------------|--------------------------------------------------------------------|--------------------------------------------------------------------|
--------5-8-5-8---------12-17----12-17-12------------------------|------5---------5----12-------12----------15-13-12---------------|----5-------------13-------------------------------14-13-14~-----|--7--------------------------------------------------------------|-----------------------------------------------------------------|-----------------------------------------------------------------|
--5--17-15-13-12-15-13-12-10-13-12-10-8-12-10-8-7-10-8-7-5-5h7p5h7p5h7p5-|-------------------------------------------------------------------------|-------------------------------------------------------------------------|-------------------------------------------------------------------------|-------------------------------------------------------------------------|-------------------------------------------------------------------------|
----17-15-13-12-15-13-12-10-13-12-10-8-12-10-8-7-10-8-7-5-5h7p5h7p5h7p5-|------------------------------------------------------------------------|------------------------------------------------------------------------|------------------------------------------------------------------------|------------------------------------------------------------------------|------------------------------------------------------------------------|
-------------10h12h13p12p10-----------------------------------------|----10-12-13----------------13-12-10--------------------------------|-------------------------------------12-10-9------------------------|---------------------------------------------12-10-9----10-12-15~---|-----------------------------------------------------14-------------|--------------------------------------------------------------------|
----17-15-13-12-15-13-12-10-13-12-10-8-12-10-8-7-10-8-7-5-5h7p5h7p5h7p5-|------------------------------------------------------------------------|------------------------------------------------------------------------|------------------------------------------------------------------------|------------------------------------------------------------------------|------------------------------------------------------------------------|
--20-16-17-19-20-19-17-16-20-16-17-19-20-19-17-16-20-16-17-19-20-19-17-16-20-16-----------------------------------------------------------------------------------------------------------------------------------------------------------------------------------------------------------------------------------------------------------------------------------------------------------------------------------------------------------------------------------------------------------------
--20-16-17-19-20-19-17-16-19r---20-19-17-16---------------------------------------------------------------------------------18-17-15-13---------------------------------------------------------------------------------14-13---------------------------------------------------------------------------------15-14-12---------------------------------------------------------------------------------15-14-12---------------------------------------------------------------------------------
------17-15-13-12-15-13-12-10-13-12-10-8-12-10-8-7-10-8-7-5-5h7p5h7p5h7p5h7h|----------------------------------------------------------------------------|----------------------------------------------------------------------------|----------------------------------------------------------------------------|--11------------------------------------------------------------------------|----------------------------------------------------------------------------|
----17-15-13-12-15-13-12-10-13-12-10-8-12-10-8-7-10-8-7-5-5h7p5h7p5h7p5-|------------------------------------------------------------------------|------------------------------------------------------------------------|------------------------------------------------------------------------|------------------------------------------------------------------------|------------------------------------------------------------------------|
-----------------------------10h12h13p12p10---------------------------------|--------------------10-12-13----------------13-12-10------------------------|------------9-10-12----------------------------------12-10-9----------------|----9-10-12--------------------------------------------------12-10-9----10--|---------------------------------------------------------------------12-----|----------------------------------------------------------------------------|
----17-15-13-12-15-13-12-10-13-12-10-8-12-10-8-7-10-8-7-5-5h7p5h7p5h7p5-|------------------------------------------------------------------------|------------------------------------------------------------------------|------------------------------------------------------------------------|------------------------------------------------------------------------|------------------------------------------------------------------------|
--5p2-------2-8p5-------5-11p8----------8-14p11----------11-17~---|------4---4-------7---7--------10----10---------13----13----------|--------5-----------8-------------11---------------14-------------|------------------------------------------------------------------|------------------------------------------------------------------|------------------------------------------------------------------|
--20-19-17-20-19-17-17-16-13-17-16-13---------------------------------------------------------------------------------17-15-13-12---------------------------------------------------------------------------------14-13-10----14-13------------------------------------------------------------------------15-------15-14-12---------------------------------------------------------------------------------15---------------------------------------------------------------------------------
---------------------17-----------------------------------17----------------|------------------17----17-----------------------------17----17-------------|---------------17----------17-----------------------17----------17----------|------------19----------------19-----------------19----------------19-------|---------19----------------------19-15--------19----------------------19-15-|--17--17-------------------------------17--17-------------------------------|
---------------------17------------------------------||------------------17----17---------------------------||---------------17----------17--------------13--14----||------------19----------------19---------------------||---------19----------------------19-15---------------||--17--17-------------------------------17------------||
||||||||||||||||||||||||||||||||||||||||||||||||||||||||||||| | | | | | |||||||||||||||||||||||||||||| | | |||||||||||||||||||||||||||||| | | |||||||||| Guitar 2: ||||||||| | | |||||||||||||||||||||||||||||| | | |||||||||||||||||||||||||||||| | | |
| |--------------------------------------------| | | |--------------------------------------------| |
| |This is played at the same time as guitar 1!| | | |--------------------------------------------| | | |--------------------------------------------| | | | | | |||||||||||||||||||||||||||||||||||||||||||||||||||||||||||||
D||----------------12-10-8-|--7~-----7-8-10-8~-----12-13-15-|A||------------------------|--------------------------------|F||------------------------|--------------------------------|C||------------------------|--------------------------------|G||------------------------|--------------------------------|D||------------------------|--------------------------------|
--17~-----13-15-17-15~-----12-13-15-|------------------------------------|------------------------------------|------------------------------------|------------------------------------|------------------------------------|
--13h15p13h15p13h15p13h15p13h15p13-10-12-13-12~-----8-10-12-|------------------------------------------------------------|------------------------------------------------------------|------------------------------------------------------------|------------------------------------------------------------|------------------------------------------------------------|
--10~-----7-8-10-8~-----12-10-8-|--7~-----7-8-10-8~-----12-13-15-|--------------------------------|--------------------------------|--------------------------------|--------------------------------|--------------------------------|--------------------------------|--------------------------------|--------------------------------|--------------------------------|--------------------------------|
--17~-----13-15-17-15~-----12-13-15-|------------------------------------|------------------------------------|------------------------------------|------------------------------------|------------------------------------|
--13h15p13h15p13h15p13h15p13h15p13-10-12-13-12~-----8-10-12-|------------------------------------------------------------|------------------------------------------------------------|------------------------------------------------------------|------------------------------------------------------------|------------------------------------------------------------|
--10~-----7-8-10-8------7-4-5-7-|--------------------------------|--------------------------------|--------------------------------|--------------------------------|--------------------------------|
--8-5-7-8-10-7-8-10-12-8-10-12-13-10-12-13-15-12-13-15-17-13-15-17-19-15-17-19-2----------------------------------------------------------------------------------------------------------------------------------------------------------------------------------------------------------------------------------------------------------------------------------------------------------------------------------------------------------------------------------------------------------------
-----------------------------------------------------12-17p12---------------------18-17-15----------------------------------------13----------13---------------------------17-16-14-13-------------------------14----------------14------------------------------------15-14-12-------------14----------------------14
Tap to rate this tab
 
# A B C D E F G H I J K L M N O P Q R S T U V W X Y Z