Yngwie Malmsteen – Cavallino Rampante tab

Yngwie Malmsteen
Cavallino Rampante

-4-1-------1-4-1-5-2-------2-5-2-7-------4-7-8-5-------5-10-7--------7-10-|-----3---4-----------4---4---------6---6---------7---7--------9----9------|-------4---------------5-------------7-------------8------------10--------|--------------------------------------------------------------------------|--------------------------------------------------------------------------|--------------------------------------------------------------------------|
-11-8----------8-11-13-11----------11-13-14-11----------11-14-16-13--------13-|------10----10------------12----12-------------13----13-------------15--15----|---------11------------------13-------------------14------------------16------|------------------------------------------------------------------------------|------------------------------------------------------------------------------|------------------------------------------------------------------------------|
-16-13-17-14----------14-17-14-19-16----------16-19-16-21~--|-------------16----16----------------18----18---------------|----------------17----------------------19------------------|------------------------------------------------------------|------------------------------------------------------------|------------------------------------------------------------|
-21-19-21-17-21-16-21----------17-16-17-14-17-12---------14-13-14-12-14-9-14-----------|----------------------19-18-19-------------------15-14-15---------------------12-11-12-|---------------------------------------------------------------------------------------|---------------------------------------------------------------------------------------|---------------------------------------------------------------------------------------|---------------------------------------------------------------------------------------|
-10-9-10-7-10-5-10-----------------5-7-5-4-5--9-10-9-7-9--14-16-14-13-|-------------------9-7-6-7-9-6-7~-------------------------------------|----------------------------------------------------------------------|----------------------------------------------------------------------|----------------------------------------------------------------------|----------------------------------------------------------------------|
-19-16-17----16----------------------------------------|----------19----18-19-14-15----14----------------------|----------------------------16----14-16-14-13-14-------|-------------------------------------------------16~---|-------------------------------------------------------|-------------------------------------------------------|
-------------------------------------------10------------------|----------------------------------10-12-14----14-12-10-9-------|-11-10-11-13-11-10tr11---10-11-13------------------------11-10-|---------------------------------------------------------------|---------------------------------------------------------------|---------------------------------------------------------------|
-10----------------------------------------------------------10-14--|----14-13-10-9-----------------------------------12-------12--------|---------------11-10--------------------11-13-14----14-13-----------|---------------------12-11-9----------------------------------------|-----------------------------12-11-9--------------------------------|--------------------------------------------------------------------|
-17-16-14-13-------13-----------------------------------------------|-------------15-14----15-14-12-------12-----------------------------|-------------------------------14-13----14-13-11-10-----------------|----------------------------------------------------12-10-9---------|------------------------------------------------------------12-10-9-|--------------------------------------------------------------------|
------------------------------------10-9------------21~--|-----------------------------------------12-10-9---------|-11-10-13-11-10--10-11-13-10-11-13---------------11------|---------------------------------------------------------|---------------------------------------------------------|---------------------------------------------------------|
-21-19-21-17-21-16-21----21----21---------|----------------------19----18----19-19---|------------------------------------------|------------------------------------------|------------------------------------------|------------------------------------------|
---------------------------------------------7----------|-------------12-----------------------------------------|-11-11-13-14----14-13-11-13-14-13-11-13---9----9-7-9-7--|--------------------------------------------------------|--------------------------------------------------------|--------------------------------------------------------|
---------------7-9-10----------9-10-12-14-----------------------------------------|-------7-9-10----------9-10-12----------------------------------------------------|-6-7-9-----------------------------------8-10-11-11-10-8-66-7-99-7-6---6-77-66----|---------------------------------------------------------------------9--------9-6-|----------------------------------------------------------------------------------|----------------------------------------------------------------------------------|
-------------------------------7-54---19-17-19-17-16----16-19-16-----|----------------------------76------7----------------17----------18--|---------------------6---76------------------------------------------|-7-9-9-7-6---7-6-9-7---9---------------------------------------------|-----------9---------------------------------------------------------|---------------------------------------------------------------------|
---13-16-13----10-13-10----13-16-13----10-13-10----10-13-10----13-21~--|------------15----------12----------15----------12----------12---------|-----------------------------------------------------------------------|-----------------------------------------------------------------------|-----------------------------------------------------------------------|-----------------------------------------------------------------------|
-17-21-19-17-16-19-17-16----17-16-------16-------------------------------|-------------------------19-------19-17----19-17-19-17-16----17-16-------|----------------------------------------------------------18-------18-16-|-------------------------------------------------------------------------|-------------------------------------------------------------------------|-------------------------------------------------------------------------|
----------------------------------------------------------------------------------|------------------------------------------------------------------------------14~-|-14-12---------------------------------------------------------------------13-----|-------16-14-12----------14-12----------------------------16------12-14-16--------|----------------16-14-12-------16-14-12----------13-14-16----14-16----------------|----------------------------------------16-14-16----------------------------------|
-------------------------------------21----------------------|------------------------------14tr15----------10-12-10----10-|-11-10-11-13-11-10tr11-13tr14-----------11-13----------13----|-------------------------------------------------------------|-------------------------------------------------------------|-------------------------------------------------------------|
--------7-9-10-9-9-------------------------------------------|-7-9-10------------10-9-7-6-----------10-9-7-6---------------|----------------------------7-6----------------7-6-----------|--------------------------------9-7-6--------------9-7-6-----|---------------------------------------------------------9---|-------------------------------------------------------------|
-----------------------------------------------------------------10-------------------|--------------------------------------10-------10-12----10-12-14----14-12-10-14-12-10-|-11-10-11-13-11-10--10-11-13-10-11-13----11-13-------13-------------------------------|--------------------------------------------------------------------------------------|--------------------------------------------------------------------------------------|--------------------------------------------------------------------------------------|
-----------------------------------------------9-10-9---------|-------------------------12-10-9-10----9-10-12--------12-10-9-|-13-11-10-11-11-10-13-14------------11------------------------|--------------------------------------------------------------|--------------------------------------------------------------|--------------------------------------------------------------|
-----------------------14~-|-----------12-12----12-----|--9-11-9-8-----------------|-----------------13--------|---------------------------|---------------------------|
-------------------------------------------14----18-19-18-19--|--------------------------------13-14-15-17---17--------------|--------------------------11-16-------------------------------|-----------11-12-11-12-14-------------------------------------|--14-13-14----------------------------------------------------|--------------------------------------------------------------|
----------------------------------------------------------------12-14-15-|--------------------------------------------------------12-4-15----------|------------------------------------------------11-12-14-----------------|-------------11----11-12-14------------11-12-14--------------------------|-12-11-12-14----14-------------------------------------------------------|-------------------------------------------------------------------------|
-14-12--------------------12----------------------------------------|-------15-14-12-11-----------15-14-12-11----------------------------|-------------------12-11-----------------12-11----------------------|-----------------------------------------------14-12-11-------------|--------------------------------------------------------14-12-10----|-----------------------------------------------------------------12-|
--------------------------------------77-1919---------------15-----------|-----------------------------------77--------------15-17-19----19-17-15--|--------------------------------66------------16-18----------------------|------------9----------------77------------------------------------------|-10-9-10-12---12-10-9-8~--99---------------------------------------------|-------------------------------------------------------------------------|
---------------------------------------------14-19-|------------------------------------------15-------|-18-16-15--------------------------11--16----------|----------17-15-14--------------13-----------------|-------------------17-15-14--14--------------------|---------------------------------------------------|
---------------------------------------10----------------10-----|------------------------------------12----12----------12----12--|--------------------------11----11-----------11----11-----------|-----------11-12-11-12-14----12-----------------12--------------|--14-13-14------------------------------------------------------|----------------------------------------------------------------|
-----------------------------------10--|--------------------------------11-----|-----------------------------12--------|--------------11----11-12-14-----------|--12-11-12-14----14--------------------|---------------------------------------|
-15-14-12--------------------12----------------------------------------|----------15-14-12-11-----------15-14-12-11----------------------------|----------------------12-11-----------------12-11----------------------|--------------------------------------------------14-12-11-------------|-----------------------------------------------------------14-12-10----|--------------------------------------------------------------------12-|
----------------------------------------------------------|----------------------------------------------------------|-----------------------------------9-12------9-12-912-11--|------------9-----------------8-11------8-11--------------|-10-9-10-12---12-10-9-8~-7-10-----------------------------|----------------------------------------------------------|
--------------------------------12-14-15--14-12----------15-14-12-------------------|-----------------------12-14-15-----------------15-14-12----------15-14-12-11-------|--------------11-12-14--------------------------------------------------------12-11-|-----11-12-14-----------------------------------------------------------------------|--14--------------------------------------------------------------------------------|------------------------------------------------------------------------------------|
-----------------------------------------------15-14-12-------------------|--15-14-12-11-------------------------------------------15-14-12-11-------|--------------12-11----------12-11----------------------------------12-11-|--------------------14-12-11-------14-12-11-------------------------------|--------------------------------------------14----------------------------|--------------------------------------------------------------------------|
-------------------------------------------------------------|-------------------------------------------------------------|-------------------------------------------------------------|-14-12-11----12-11-------------------------------------------|----------14-------14-12-10----12-10-------10----------------|----------------------------14-------14-12----14-12-10-9-7~--|
-----------------------10-9-10-7-10-9-10------------------------|-11-10-11-13-11-10tr11-------------------7-------10-12-10-------|-------------------------------------------11-13----------13-11-|----------------------------------------------------------------|----------------------------------------------------------------|----------------------------------------------------------------|
-7-4---4-10-7---7-10----10-16-13----13-19-16----16-21~--|-----6--------9------12----------15----------18---------|--------------------------------------------------------|--------------------------------------------------------|--------------------------------------------------------|--------------------------------------------------------|
------------------------------------------------------------------------------------|----------12-14-15-14-12----------------12-14-15-14-12---------------12-14-15-14-12-|-11-13-14----------------14-13-11-13-14----------------14-13-11-13-14---------------|------------------------------------------------------------------------------------|------------------------------------------------------------------------------------|------------------------------------------------------------------------------------|
----------------------------------------------|-----------------------10-12-10-9-10-10-9-7-9-|--14-13-11-10-11-11-13------------------------|----------------------------------------------|----------------------------------------------|----------------------------------------------|
-4-1-------1-4-1-5-2-------2-5-2-7-------4-7-8-5-------5-10-7--------7-10-|-----3---4-----------4---4---------6---6---------7---7--------9----9------|-------4---------------5-------------7-------------8------------10--------|--------------------------------------------------------------------------|--------------------------------------------------------------------------|--------------------------------------------------------------------------|
-11-8----------8-11-13-11----------11-13-14-11----------11-14-16-13--------13-|------10----10------------12----12-------------13----13-------------15--15----|---------11------------------13-------------------14------------------16------|------------------------------------------------------------------------------|------------------------------------------------------------------------------|------------------------------------------------------------------------------|
-16-13-17-14----------14-17-14-19-16----------16-19-16-21~--|-------------16----16----------------18----18---------------|----------------17----------------------19------------------|------------------------------------------------------------|------------------------------------------------------------|------------------------------------------------------------|
-21-19-21-17-21-16-21----------17-16-17-14-17-12---------14-13-14-12-14-9-14-----------|----------------------19-18-19-------------------15-14-15---------------------12-11-12-|---------------------------------------------------------------------------------------|---------------------------------------------------------------------------------------|---------------------------------------------------------------------------------------|---------------------------------------------------------------------------------------|
-10-9-10-7-10-5-10-----------------5-7-5-4-5--9-10-9-7-9--14-16-14-13-|-------------------9-7-6-7-9-6-7~-------------------------------------|----------------------------------------------------------------------|----------------------------------------------------------------------|----------------------------------------------------------------------|----------------------------------------------------------------------|
-17-16-17--21-19-21-17-21-16-21----------21-21ffb~~~---|--------------------------------19-18-19---------------|-------------------------------------------------------|-------------------------------------------------------|-------------------------------------------------------|-------------------------------------------------------|
Please rate this tab:
x1.0