Yngwie Malmsteen - Masquarade tab

Yngwie Malmsteen
Masquarade

This is the intro riff Em|---------------------------------------------------------||---------------------------------------------------------||---------------------------------------------------------||---------2----------------------------2------------------||-----------0-2-3-2-0---2----------------0-10-9-7-6tr7----| x2|-0-2-3-5-------------3---3-2-0--2-3-5--------------------|
F#m |--------------------------------------------------------------------||--------------------------------------------------------------------||--------------------------------------------------------------------||---------4----------------------------4---------------------------4-||-------2---2-4-5-4-2---4------------2---2-4-5-4-2---------------2---||-2-4-5---------------5---5-4-2--4-5---------------5-4-1---2-4-5-----|
|------------------------------------------------||------------------------------------------------||------------------------------------------------||----------------------------4-------------------||-2-4-5-4-2---4------------2---2-12-11-9tr10-8~--||-----------5---5-4-2--4-5-----------------------|
interlude----arpeggios progression
|-7p3-------3-:-7p4-------4-:-9p5-------5-:-9p6-------6-:-10p7-------7--||-----3---3---:-----5---5---:-----5---5---:-----7---7---:------7---7----||-------4-----:-------4-----:-------6-----:-------6-----:--------7------||-------------:-------------:-------------:-------------:---------------||-------------:-------------:-------------:-------------:---------------||-------------:-------------:-------------:-------------:---------------|
|-12p9---------9-:-14p10----------10-:-14p11----------11-:|------10---10---:-------10----10----:-------12----12----:|---------9------:----------11-------:----------11-------:|----------------:-------------------:-------------------:|----------------:-------------------:-------------------:|----------------:-------------------:-------------------:
|-15p12----------12-:-16p13----------13--||-------12----12----:-------15----15-----||----------12-------:----------16--------||-------------------:--------------------||-------------------:--------------------||-------------------:--------------------|
|-19p14-------19p14--------18p14-------16p13--------:|-------14----------14-----------14----------14-----:|----------16----------16-----------15----------13--:|---------------------------------------------------:|---------------------------------------------------:|---------------------------------------------------:
|-17p12-------17p12-------16p12-------14p11-------||-------12----------12----------12----------12----||----------14----------14----------13----------11-||-------------------------------------------------||-------------------------------------------------||-------------------------------------------------|
|-15p10-------15p10--------14p10-------12p9-------:|-------10----------10-----------10---------10----:|----------12----------12-----------11---------9--:|-------------------------------------------------:|-------------------------------------------------:|-------------------------------------------------:
|-13p8------13p8------12p8-----10p7-----||------8---------8---------8--------8---||--------10--------10--------9--------7-||---------------------------------------||---------------------------------------||---------------------------------------|
|-11p6------11p6------10p6------8p5--------||------6---------6---------6--------6------||--------8---------8---------7--------5----||------------------------------------------||------------------------------------------||------------------------------------------|
Tap to rate this tab
 
# A B C D E F G H I J K L M N O P Q R S T U V W X Y Z