Yoko Kanno - Green Bird tab

|--3-------7---5---|--3-------7---5---|--3---------------||------3-----------|------3-----------|--3------0-1--3---||------0-------0---|------0-------0---|--0---2-----------||----0---0---0---0-|----0---0---0---0-|------------------||--2---------------|--2---------------|--2---------------||----------8-------|----------8-------|------------------|
|--3-------7---5---|--3-------7---5---|---------7--8--10-||------3-----------|------3-3---------|--8---10----------||------0-------0---|------0-------0---|--7---------------||----0---0---0---0-|----0-------0---0-|------------------||--2---------------|--2---------------|------------------||----------8-------|----------8-------|--7---------------|
|--7---7---8---4---|---7----7-----5~--|------------------||--8---8---8---5---|---8----8-----7~--|-------2/3~-------||----0---0--0----4-|------------------|---0---3/4~---2p0-||------------------|-----0----0-------|--0---------------||------------------|------------------|------------------||------------------|------------------|------------------|
|------------------|------------------||------------------|------------------||------0-------0---|------0-------0---||----0--0----0--0--|----0--0----0--0--||--2-------3-------|--2-------3-------||------------------|------------------|
|------------------|------------------||------------------|------------------||------0-------0---|------0-------0---||----0--0----0--0--|----0--0----0--0--||--2-------3-------|--2-------3-------||------------------|------------------|
|--3--------2----0-|----------------0-|-----------------||------3-----------|-3----------------|-3---------------||--------0------0--|-----0------0-----|-----0------0----||----0--------0----|---0--0---0-------|---0--0---0--0---||--2--------3------|-2------3---------|-2------3--------||------------------|------------------|-----------------|
|-3------2h3p2p0---|----------------0-|--0--------------||-----3----------3-|------------------|-3-3-------------||------0-----------|-----0------0-----|------0-----0----||---0--------------|---0--0---0-------|-----0-0---0--0--||-2------3---------|-2------3---------|-2------3--------||------------------|------------------|-----------------|
|--3-------7---5---|--3-------7---5---|--3---------------||------3-----------|------3-----------|--3------0-1--3---||------0-------0---|------0-------0---|--0---2-----------||----0---0---0---0-|----0---0---0---0-|------------------||--2---------------|--2---------------|--2---------------||----------8-------|----------8-------|------------------|
|--3-------7---5---|--3-------7---5---|---------7--8--10-||------3-----------|------3-3---------|--8---10----------||------0-------0---|------0-------0---|--7---------------||----0---0---0---0-|----0-------0---0-|------------------||--2---------------|--2---------------|------------------||----------8-------|----------8-------|--7---------------|
|--7---7---8---4---|---7----7-----5~--||--8---8---8---5---|---8----8-----7~--||----0---0--0----4-|------------------||------------------|-----0----0-------||------------------|------------------||------------------|------------------|
|---------7--------|---5p3-----3------||---------8--------|-----------3------||----0----5--------|-----------0------||--0------7--------|-----------0------||---------0--------|-----------2------||------------------|-----------3------|
Tap to rate this tab
 
# A B C D E F G H I J K L M N O P Q R S T U V W X Y Z