You Say Party We Say Die - Xxxx Loyalty tab

XXXX Loyalty - You Say Party! We Say Die!
Tabbed by: Jaden Sherrard
Tuning: Standard

e|-------------------------|B|---------------9-9-------|G|--------12-------12--12--|D|--10-10----10------------| x17A|-------------------------|E|-------------------------|
|-----------------------------------------------------------------||-----------------------------------------------------------------||--5-5-5-5-5-5-5-5-5-5-5-5-7-7-7-7-7-7-7-7-8-8-8-8-10-10-10-10----||--5-5-5-5-5-5-5-5-5-5-5-5-7-7-7-7-7-7-7-7-8-8-8-8-10-10-10-10----| x4|--3-3-3-3-3-3-3-3-3-3-3-3-5-5-5-5-5-5-5-5-6-6-6-6-8--8--8--8-----||-----------------------------------------------------------------|
|-----------------------------------------------------------------||-----------------------------------------------------------------||-----------------------------------------------------------------||--10--10--10-10-10-10---10-10-10-10--8h10--10--10--10-10-10\8/13-||-----------------------------------------------------------------||-----------------------------------------------------------------|
---------------------|---------------------|---------------------|-13-13-13-12--12-12--|---------------------|---------------------|
|-------------------------||---------------9-9-------||--------12-------12--12--||--10-10----10------------| x8|-------------------------||-------------------------|
|--0-0------0-0--0-0--0-0--------------------------||--1-1------1-1--1-1--1-1--------------------------||--0-0------0-0--0-0--0-0----------12-12---(12)----||--2-2------2-2--2-2--2-2------/10-----------------| x2|--3-3------3-3--3-3--3-3--------------------------||--------------------------------------------------|
|-------------------------||---------------9-9-------||--------12-------12--12--||--10-10----10------------| x9|-------------------------||-------------------------|
|---------------------------------||---------------------------12----||--------12-------12--9--9--------||--10-10----10-10-----------------| x2|---------------------------------||---------------------------------|
|-------------------------||---------------9-9-------||--------12-------12--12--||--10-10----10------------| x9|-------------------------||-------------------------|
|---------------------------------------------------------------||---------------------------------------------------------------||--5-5-5-5-5-5-5-5-5-5-5-5-7-7-7-7-7-7-7-7-8-8-8-8-10-10-10-10--||--5-5-5-5-5-5-5-5-5-5-5-5-7-7-7-7-7-7-7-7-8-8-8-8-10-10-10-10--| x3|--3-3-3-3-3-3-3-3-3-3-3-3-5-5-5-5-5-5-5-5-6-6-6-6-8--8--8--8---||---------------------------------------------------------------|
---------------------------------------------------------------|---------------------------------------------------------------|--5-5-5-5-5-5-5-5-5-5-5-5-7-7-7-7-7-7-7-7-8-8-8-8-10-10-10-10--|---------------------------------------------------------------|---------------------------------------------------------------|---------------------------------------------------------------|
--------------------------------------------------------------------|--------------------------------------------------------------------|--5-5-5-5-5-5-5-5-5-5-5-5-7-7-7-7-7-7-7-7-8-8-8-8-10-10-10-10---5---|--5-5-5-5-5-5-5-5-5-5-5-5-7-7-7-7-7-7-7-7-8-8-8-8-10-10-10-10---5---|--3-3-3-3-3-3-3-3-3-3-3-3-5-5-5-5-5-5-5-5-6-6-6-6-8--8--8--8----3---|--------------------------------------------------------------------|
That's about it, have fun with it
Tap to rate this tab
 
# A B C D E F G H I J K L M N O P Q R S T U V W X Y Z