Young Guns - Sons Of Apathy tab version 2

hey heres my version of sons of apathy by young guns

its a fairly simply tune but fun to play :) any probs let us kno and il sort it out cheers

tuning is Drop B 

intro

|-------------------------------------------------------------------------||-------------------------------------------------------------------------||--4444444-7-2222222-4444444-7-2222222------------------------------------||--4444444-7-2222222-4444444-7-2222222-5555555-7-2222222-5555555-3-2-0-2--||--2222222-5-0000000-2222222-5-0000000-5555555-7-2222222-5555555-3-2-0-2--||--------------------------------------5555555-7-2222222-5555555-3-2-0-2--|
|-------------------------------------------------------------------------||-------------------------------------------------------------------------||--4444444-7-2222222-4444444-7-2222222------------------------------------||--4444444-7-2222222-4444444-7-2222222-5555555-7-2222222-5555555-7-----7--||--2222222-5-0000000-2222222-5-0000000-5555555-7-2222222-5555555-7-77777--||--------------------------------------5555555-7-2222222-5555555-7-77777--|
lead over top|---------------------------------------------------||--12-12-12----------12-12-12----------12----10h12--||-----------11-11-11----------11-11-11----11--------||---------------------------------------------------||---------------------------------------------------||---------------------------------------------------|
|---------------------------------------------||--12-12-12----------12-12-12----------12/15--||-----------11-11-11----------11-11-11--------||---------------------------------------------||---------------------------------------------||---------------------------------------------|
|---------------------------------------------------------------------||--12-14--15-14-15-14-15-14-12--12-12-12-12-12-12--15-14-15-14-15-14--||---------------------------------------------------------------------||---------------------------------------------------------------------||---------------------------------------------------------------------||---------------------------------------------------------------------|
|-------------------------------------||--12-12-12-10-10-10-------------12~--||--------------------11-11-11-11------||-------------------------------------||-------------------------------------||-------------------------------------|
verse|-----------------------------------------------------------------||-----------------------------------------------------------------||-----------------------------------------------------------------||-----------------------------------------------------------------||--5-555-5--9--7-777-7--7--5p4-----5-555-5--9--7-777-7--7/222222--||--5-555-5--9--7-777-7--7-----7p4--5-555-5--9--7-777-7--7/222222--|
|------------------------------------------------------------------------||------------------------------------------------------------------------||---------------------------------------------------------------7---6----||-----------------------------------------------------------7---------9--||--5-555-5-9-9-9/7-777-7-7-5p4----5-555-5-9-9-9/7-777-7-7-9---9---9------||--5-555-5-9-9-9/7-777-7-7----7p4-5-555-5-9-9-9/7-777-7-7----------------|
pre-chorus|----------------------| |--------------------||----------------------| |--------------------||----------------------| |--------------------||----------------------| x3 |--------------7777--| x1|--55555555-7777-2222--| |--5555555-77777777--||--55555555-7777-2222--| |--5555555-77777777--|
chorus|---------------------------------------------------------------------------||---------------------------------------------------------------------------||--4444444-7-2222222-4444444-7-2222222--------------------------------------||--4444444-7-2222222-4444444-7-2222222-5555555-7-2222222-5555555-7-2222222--||--2222222-5-0000000-2222222-5-0000000-5555555-7-2222222-5555555-7-2222222--||--------------------------------------5555555-7-2222222-5555555-7-2222222--|
|-------------------------------------------------------------------------||-------------------------------------------------------------------------||--4444444-7-2222222-4444444-7-2222222------------------------------------||--4444444-7-2222222-4444444-7-2222222-5555555-7-2222222-5555555-7-----7--||--2222222-5-0000000-2222222-5-0000000-5555555-7-2222222-5555555-7-77777--||--------------------------------------5555555-7-2222222-5555555-7-77777--|
lead over top|---------------------------------------------------||--12-12-12----------12-12-12----------12----10h12--||-----------11-11-11----------11-11-11----11--------||---------------------------------------------------||---------------------------------------------------||---------------------------------------------------|
|---------------------------------------------||--12-12-12----------12-12-12----------12/15--||-----------11-11-11----------11-11-11--------||---------------------------------------------||---------------------------------------------||---------------------------------------------|
|---------------------------------------------------------------------||--12-14--15-14-15-14-15-14-12--12-12-12-12-12-12--15-14-15-14-15-14--||---------------------------------------------------------------------||---------------------------------------------------------------------||---------------------------------------------------------------------||---------------------------------------------------------------------|
|-------------------------------------||--12-12-12-10-10-10-------------12~--||--------------------11-11-11-11------||-------------------------------------||-------------------------------------||-------------------------------------|
verse|-----------------------------------------------------------------||-----------------------------------------------------------------||-----------------------------------------------------------------||-----------------------------------------------------------------||--5-555-5--9--7-777-7--7--5p4-----5-555-5--9--7-777-7--7/222222--||--5-555-5--9--7-777-7--7-----7p4--5-555-5--9--7-777-7--7/222222--|
|------------------------------------------------------------------------||------------------------------------------------------------------------||---------------------------------------------------------------7---6----||-----------------------------------------------------------7---------9--||--5-555-5-9-9-9/7-777-7-7-5p4----5-555-5-9-9-9/7-777-7-7-9---9---9------||--5-555-5-9-9-9/7-777-7-7----7p4-5-555-5-9-9-9/7-777-7-7----------------|
pre-chorus|----------------------| |--------------------||----------------------| |--------------------||----------------------| |--------------------||----------------------| x3 |--------------7777--| x1|--55555555-7777-2222--| |--5555555-77777777--||--55555555-7777-2222--| |--5555555-77777777--|
chorus|---------------------------------------------------------------------------||---------------------------------------------------------------------------||--4444444-7-2222222-4444444-7-2222222--------------------------------------||--4444444-7-2222222-4444444-7-2222222-5555555-7-2222222-5555555-7-2222222--||--2222222-5-0000000-2222222-5-0000000-5555555-7-2222222-5555555-7-2222222--||--------------------------------------5555555-7-2222222-5555555-7-2222222--|
|-------------------------------------------------------------------||-------------------------------------------------------------------||--4444444-7-2222222-4444444-7-2222222------------------------------||--4444444-7-2222222-4444444-7-2222222-5555555-7-2222222-5555555-7--||--2222222-5-0000000-2222222-5-0000000-5555555-7-2222222-5555555-7--||--------------------------------------5555555-7-2222222-5555555-7--|
lead over top|---------------------------------------------------||--12-12-12----------12-12-12----------12----10h12--||-----------11-11-11----------11-11-11----11--------||---------------------------------------------------||---------------------------------------------------||---------------------------------------------------|
|---------------------------------------------||--12-12-12----------12-12-12----------12/15--||-----------11-11-11----------11-11-11--------||---------------------------------------------||---------------------------------------------||---------------------------------------------|
|------------------------------------------------------------------------||--12-14--15-14-15-14-15-14-12--12-12-12-12-12-12--15-14-15-14-15-14-12--||------------------------------------------------------------------------||------------------------------------------------------------------------||------------------------------------------------------------------------||------------------------------------------------------------------------|
middle 8 |-------------------------||-------------------------||-------------------------||----------7-----------5--| x2|--9999999-7---2222222-5--||--9999999-7---2222222-5--|
|-------------------------------------||-------------------------------------||-------------------------------------||-------------------------------------| x2|--9999999777777777-2222222555555555--||--9999999777777777-2222222555555555--|
|----------------------------------------------------||----------------------------------------------------||----------------------------------------------------||--121212121212121111111111111111115555555999999999--| |--9-9-9-9-9-9-9-7-7-7-7-7-7-7-7-7-2222222555555555--||--9-9-9-9-9-9-9-7-7-7-7-7-7-7-7-7-2222222555555555--|
|----------------------------------------------------||----------------------------------------------------||----------------------------------------------------||--121212121212121111111111111111119999999999999999--| |--9-9-9-9-9-9-9-7-7-7-7-7-7-7-7-7-5555555555555555--||--9-9-9-9-9-9-9-7-7-7-7-7-7-7-7-7-5555555555555555--|
|----------------------------------------------------||----------------------------------------------------||----------------------------------------------------||--121212121212121111111111111111115555555999999999--| |--9-9-9-9-9-9-9-7-7-7-7-7-7-7-7-7-2222222555555555--||--9-9-9-9-9-9-9-7-7-7-7-7-7-7-7-7-2222222555555555--|
|--------------------------------------------------------------------||--------------------------------------------------------------------||--------------------------------------------------------------------||--1212121212121211111111111111111199999999999999999999999999999999--| |--9-9-9-9-9-9-9-7-7-7-7-7-7-7-7-7-55555555555555555555555555555555--||--9-9-9-9-9-9-9-7-7-7-7-7-7-7-7-7-55555555555555555555555555555555--|
|-------------------------------------------------------------------------||-------------------------------------------------------------------------||--4444444-7-2222222-4444444-7-2222222------------------------------------||--4444444-7-2222222-4444444-7-2222222-5555555-7-2222222-5555555-3-2-0-2--||--2222222-5-0000000-2222222-5-0000000-5555555-7-2222222-5555555-3-2-0-2--||--------------------------------------5555555-7-2222222-5555555-3-2-0-2--|
chorus/outro|---------------------------------------------------------------------------||---------------------------------------------------------------------------||--4444444-7-2222222-4444444-7-2222222--------------------------------------||--4444444-7-2222222-4444444-7-2222222-5555555-7-2222222-5555555-7-2222222--||--2222222-5-0000000-2222222-5-0000000-5555555-7-2222222-5555555-7-2222222--||--------------------------------------5555555-7-2222222-5555555-7-2222222--|
|-------------------------------------------------------------------||-------------------------------------------------------------------||--4444444-7-2222222-4444444-7-2222222------------------------------||--4444444-7-2222222-4444444-7-2222222-5555555-7-2222222-5555555-0--||--2222222-5-0000000-2222222-5-0000000-5555555-7-2222222-5555555-0--||--------------------------------------5555555-7-2222222-5555555-0--|
lead over top|---------------------------------------------------||--12-12-12----------12-12-12----------12----10h12--||-----------11-11-11----------11-11-11----11--------||---------------------------------------------------||---------------------------------------------------||---------------------------------------------------|
|---------------------------------------------||--12-12-12----------12-12-12----------12/15--||-----------11-11-11----------11-11-11--------||---------------------------------------------||---------------------------------------------||---------------------------------------------|
|---------------------------------------------------------------------||--12-14--15-14-15-14-15-14-12--12-12-12-12-12-12--15-14-15-14-15-14--||---------------------------------------------------------------------||---------------------------------------------------------------------||---------------------------------------------------------------------||---------------------------------------------------------------------|
|-------------------------------------||--12-12-12-10-10-10-------------12~--||--------------------11-11-11-11------||-------------------------------------||-------------------------------------||-------------------------------------|
|---------------------------------------------------||--12-12-12----------12-12-12----------12----10h12--||-----------11-11-11----------11-11-11----11--------||---------------------------------------------------||---------------------------------------------------||---------------------------------------------------|
|---------------------------------------------||--12-12-12----------12-12-12----------12/15--||-----------11-11-11----------11-11-11--------||---------------------------------------------||---------------------------------------------||---------------------------------------------|
|------------------------------------------------------------------------||--12-14--15-14-15-14-15-14-12--12-12-12-12-12-12--15-14-15-14-15-14-12--||------------------------------------------------------------------------||------------------------------------------------------------------------||------------------------------------------------------------------------||------------------------------------------------------------------------|
thats it hope it helps any probs let us kno and plz rate :)
Tap to rate this tab
 
# A B C D E F G H I J K L M N O P Q R S T U V W X Y Z