Your Demise - The Kids We Used To Be tab

These are my first tabs,so they may be wrong,I'm sorry for that.

Tuning:Standard

INTRO

Guitar 1

|--------------------||--------------------||--------------------| x2|---------6------8---||--3------4------6---| |--1-----------------|
Guitar 2 Guitar 2 comes when guitar 1 play for the second time the intro
|--------------------||--13----------------||-----12-10-12-10----||-----------------13-||--------------------||--------------------|
VERSE Guitar 1
|-----------------------------------------------------------------||-----------------------------------------------------------------||-----------------------------------------------------------------||---------------------------------6-6-6-6-6-6-6-6-6-6-6-6-6-6-6-6-||-3-3-3-3-3-3-3-3-3-3-3-3-3-3-3-3-4-4-4-4-4-4-4-4-4-4-4-4-4-4-4-4-||-1-1-1-1-1-1-1-1-1-1-1-1-1-1-1-1---------------------------------|
|-----------------------------------------------------------------||-----------------------------------------------------------------||-----------------------------------------------------------------||---------------------------------8-8-8-8-8-8-8-8-8-8-8-8-8-8-8-8-||-6-6-6-6-6-6-6-6-6-6-6-6-6-6-6-6-6-6-6-6-6-6-6-6-6-6-6-6-6-6-6-6-||-4-4-4-4-4-4-4-4-4-4-4-4-4-4-4-4---------------------------------|
|-----------------------------------------------------------------||-----------------------------------------------------------------||-----------------------------------------------------------------||---------------------------------6-6-6-6-6-6-6-6-6-6-6-6-6-6-6-6-||-3-3-3-3-3-3-3-3-3-3-3-3-3-3-3-3-4-4-4-4-4-4-4-4-4-4-4-4-4-4-4-4-||-1-1-1-1-1-1-1-1-1-1-1-1-1-1-1-1---------------------------------|
|-----------------------------------------------------------------||-----------------------------------------------------------------||-----------------------------------------------------------------||---------------------------------8-8-8-8-8-8-8-8-8-8-8-8-8-8-8-8-||-6-6-6-6-6-6-6-6-6-6-6-6-6-6-6-6-6-6-6-6-6-6-6-6-6-6-6-6-6-6-6-6-||-4-4-4-4-4-4-4-4-4-4-4-4-4-4-4-4---------------------------------|
Guitar 2
|--13-10-10-11-10-10-13-10-10-11-10-10-13-10-10-------||-----------------------------------------------------| |-----------------------------------------------------| |-----------------------------------------------------| |-----------------------------------------------------| |-----------------------------------------------------|
|--13-10-10-11-10-10-13-10-10-11-10-10-13-10-10-------| |-----------------------------------------------------| |-----------------------------------------------------| |-----------------------------------------------------| |-----------------------------------------------------| |-----------------------------------------------------|
|--13-10-10-11-10-10-13-10-10-11-10-10-13-10-10-------| |-----------------------------------------------9----8| |-----------------------------------------------------| |-----------------------------------------------------| |-----------------------------------------------------| |-----------------------------------------------------|
|--13-10-10-11-10-10-13-10-10-11-10-10-13-10-10-------||-----------------------------------------------------| |-----------------------------------------------------| |-----------------------------------------------------| |-----------------------------------------------------| |-----------------------------------------------------|
|--13-10-10-11-10-10-13-10-10-11-10-10-13-10-10-------| |-----------------------------------------------------| |-----------------------------------------------------| |-----------------------------------------------------| |-----------------------------------------------------| |-----------------------------------------------------|
|--13-10-10-11-10-10-13-10-10-11-10-10-13-10-10-------| |-----------------------------------------------9----8|(let ring) |-----------------------------------------------------| |-----------------------------------------------------| |-----------------------------------------------------| |-----------------------------------------------------|
PRE-CHOURUS Guitar 2 just let ring Guitar 1
|-----------||-----------| |-----------| x8|-----------||--3-4-4-3--||--1-2-2-1--|
CHORUS Guitar 1 and 2 play the same notes.
|-----------------------------------------------||-----------------------------------------------||-----------------------------------------------||--6-6-6-6-8-8-8-8-10-10-10-10-10-10-10-10------||--4-4-4-4-6-6-6-6-8--8--8--8--8--8--8--8-------||-----------------------------------------------|
|-----------------------------------------------||-----------------------------------------------||-----------------------------------------------||--6-6-6-6-8-8-8-8------------------------------||--4-4-4-4-6-6-6-6-6-6-6-6-6-6-6-6--------------||------------------4-4-4-4-4-4-4-4--------------|
|-----------------------------------------------||-----------------------------------------------||-----------------------------------------------||------6-6-6-6-8-8-8-8-10-10-10-10-6-6-6-6------||------4-4-4-4-6-6-6-6-8--8--8--8--4-4-4-4------||-----------------------------------------------|
|-----------------------------------------------||-----------------------------------------------||-----------------------------------------------||--6-6-6-6-8-8-8-8------------------------------||--4-4-4-4-6-6-6-6-33-333-333-333-333-333-333333||------------------11-111-111-111-111-111-111111|
POST-CHORUS Guitar 1 and 2 play the same notes.
|----------------------||----------------------||----------------------||--------6-----------8-||--3-----4-----6-----6-||--1-----------4-------|
VERSE 2 VERSE Guitar 1
|-----------------------------------------------------------------||-----------------------------------------------------------------||-----------------------------------------------------------------||---------------------------------6-6-6-6-6-6-6-6-6-6-6-6-6-6-6-6-||-3-3-3-3-3-3-3-3-3-3-3-3-3-3-3-3-4-4-4-4-4-4-4-4-4-4-4-4-4-4-4-4-||-1-1-1-1-1-1-1-1-1-1-1-1-1-1-1-1---------------------------------|
|-----------------------------------------------------------------||-----------------------------------------------------------------||-----------------------------------------------------------------||---------------------------------8-8-8-8-8-8-8-8-8-8-8-8-8-8-8-8-||-6-6-6-6-6-6-6-6-6-6-6-6-6-6-6-6-6-6-6-6-6-6-6-6-6-6-6-6-6-6-6-6-||-4-4-4-4-4-4-4-4-4-4-4-4-4-4-4-4---------------------------------|
|-----------------------------------------------------------------||-----------------------------------------------------------------||-----------------------------------------------------------------||---------------------------------6-6-6-6-6-6-6-6-6-6-6-6-6-6-6-6-||-3-3-3-3-3-3-3-3-3-3-3-3-3-3-3-3-4-4-4-4-4-4-4-4-4-4-4-4-4-4-4-4-||-1-1-1-1-1-1-1-1-1-1-1-1-1-1-1-1---------------------------------|
|-----------------------------------------------------------------||-----------------------------------------------------------------||-----------------------------------------------------------------||---------------------------------8-8-8-8-8-8-8-8-8-8-8-8-8-8-8-8-||-6-6-6-6-6-6-6-6-6-6-6-6-6-6-6-6-6-6-6-6-6-6-6-6-6-6-6-6-6-6-6-6-||-4-4-4-4-4-4-4-4-4-4-4-4-4-4-4-4---------------------------------|
Guitar 2
|--13-10-10-11-10-10-13-10-10-11-10-10-13-10-10-------||-----------------------------------------------------| |-----------------------------------------------------| |-----------------------------------------------------| |-----------------------------------------------------| |-----------------------------------------------------|
|--13-10-10-11-10-10-13-10-10-11-10-10-13-10-10-------| |-----------------------------------------------------| |-----------------------------------------------------| |-----------------------------------------------------| |-----------------------------------------------------| |-----------------------------------------------------|
|--13-10-10-11-10-10-13-10-10-11-10-10-13-10-10-------| |-----------------------------------------------9----8| |-----------------------------------------------------| |-----------------------------------------------------| |-----------------------------------------------------| |-----------------------------------------------------|
|--13-10-10-11-10-10-13-10-10-11-10-10-13-10-10-------||-----------------------------------------------------| |-----------------------------------------------------| |-----------------------------------------------------| |-----------------------------------------------------| |-----------------------------------------------------|
|--13-10-10-11-10-10-13-10-10-11-10-10-13-10-10-------| |-----------------------------------------------------| |-----------------------------------------------------| |-----------------------------------------------------| |-----------------------------------------------------| |-----------------------------------------------------|
|--13-10-10-11-10-10-13-10-10-11-10-10-13-10-10-------| |-----------------------------------------------9----8||-----------------------------------------------------| |-----------------------------------------------------| |-----------------------------------------------------| |-----------------------------------------------------|
CHORUS 2 Guitar 1 and 2 play the same notes.
|-----------------------------------------------||-----------------------------------------------||-----------------------------------------------||--6-6-6-6-8-8-8-8-10-10-10-10-10-10-10-10------||--4-4-4-4-6-6-6-6-8--8--8--8--8--8--8--8-------||-----------------------------------------------|
|-----------------------------------------------||-----------------------------------------------||-----------------------------------------------||--6-6-6-6-8-8-8-8------------------------------||--4-4-4-4-6-6-6-6-6-6-6-6-6-6-6-6--------------||------------------4-4-4-4-4-4-4-4--------------|
|-----------------------------------------------||-----------------------------------------------||-----------------------------------------------||------6-6-6-6-8-8-8-8-10-10-10-10-6-6-6-6------||------4-4-4-4-6-6-6-6-8--8--8--8--4-4-4-4------||-----------------------------------------------|
|-----------------------------------------------||-----------------------------------------------||-----------------------------------------------||--6-6-6-6-8-8-8-8------------------------------||--4-4-4-4-6-6-6-6-33-333-333-333-333-333-333333||------------------11-111-111-111-111-111-111111|
BRIDGE Guitar 1
|---------------------------------------------------------------------------------||---------------------------------------------------------------------------------||---------------------------------------------------------------------------------||-----------------55555555555555556666666666666666--------------------------------||3-33333333333333333333333333333334444444444444444-6-6-6-6-6-6-6-6-5-5-5-5-5-5-5-5||1-111111111111111---------------------------------4-4-4-4-4-4-4-4-3-3-3-3-3-3-3-3|
|---------------------------------------------------------------------------------||---------------------------------------------------------------------------------||---------------------------------------------------------------------------------||-----------------55555555555555556666666666666666--------------------------------||3-33333333333333333333333333333334444444444444444-6-6-6-6-6-6-6-6-5-5-5-5-5-5-5-5||1-111111111111111---------------------------------4-4-4-4-4-4-4-4-3-3-3-3-3-3-3-3|
Guitar 2 |----------------------------------------------------------------------------------||----------------------------------------------------------------------------------||----------------------------------------------------------------------------------||-----------------5-5--------------6-6---------------------------------------------||3-3--------------3-3--------------4-4--------------6-6-6-6-6-6-6-6-5-5-5-5-5-5-5-5||1-1------------------------------------------------4-4-4-4-4-4-4-4-3-3-3-3-3-3-3-3|
|----------------------------------------------------------------------------------||----------------------------------------------------------------------------------||----------------------------------------------------------------------------------||-----------------5-5-5------------6-6-6-------------------------------------------||3-3-3------------3-3-3------------4-4-4------------6-6-6-6-6-6-6-6-5-5-5-5-5-5-5-5||1-1-1----------------------------------------------4-4-4-4-4-4-4-4-3-3-3-3-3-3-3-3|
Then both guitars play this:
|---------------------------------------------------------------||---------------------------------------------------------------||---------------------------------------------------------------||----------------5-5-5-5-5-5-5-5-6-6-6-6-6-6-6-6----------------||3-3-3-3-3-3-3-3-3-3-3-3-3-3-3-3-4-4-4-4-4-4-4-4-6-6-6-6-5-5-5-5||1-1-1-1-1-1-1-1---------------------------------4-4-4-4-3-3-3-3|
|---------------------------------------------------------------||---------------------------------------------------------------||---------------------------------------------------------------||----------------5-5-5-5-5-5-5-5-6-6-6-6-6-6-6-6----------------||3-3-3-3-3-3-3-3-3-3-3-3-3-3-3-3-4-4-4-4-4-4-4-4-6-------5------||1-1-1-1-1-1-1-1---------------------------------4-------3------|
CHORUS 3 Both guitars play this:
|-----------------------------------------------||-----------------------------------------------||-----------------------------------------------||--6-------8-------10---------------------------||--4-------6-------8----------------------------||-----------------------------------------------|
|-----------------------------------------------||-----------------------------------------------||-------------------8---------------------------||--6-------8--------6---------------------------||--4-------6------------------------------------||-----------------------------------------------|
|-----------------------------------------------||-----------------------------------------------||-----------------------------------------------||------6-------8-------10----------6------------||------4-------6-------8-----------4------------||-----------------------------------------------|
|-----------------------------------------------||-----------------------------------------------||-----------------------------------------------||--6-------8------------------------------------||--4-------6-------6----------------------------||------------------4----------------------------|
|-----------------------------------------------||-----------------------------------------------||-----------------------------------------------||--6-6-6-6-8-8-8-8-10-10-10-10-10-10-10-10------||--4-4-4-4-6-6-6-6-8--8--8--8--8--8--8--8-------||-----------------------------------------------|
|-----------------------------------------------||-----------------------------------------------||-----------------------------------------------||--6-6-6-6-8-8-8-8------------------------------||--4-4-4-4-6-6-6-6-6-6-6-6-6-6-6-6--------------||------------------4-4-4-4-4-4-4-4--------------|
|-----------------------------------------------||-----------------------------------------------||-----------------------------------------------||------6-6-6-6-8-8-8-8-10-10-10-10-6-6-6-6------||------4-4-4-4-6-6-6-6-8--8--8--8--4-4-4-4------||-----------------------------------------------|
|--------------------------------------------------------------------------------||--------------------------------------------------------------------------------||--------------------------------------------------------------------------------||--6-6-6-6-8-8-8-8---------------------------------------------------------------||--4-4-4-4-6-6-6-6-33-333-333-333-333-333-3333333----33-333-333-333-333-333-33333||------------------11-111-111-111-111-111-1111111----11-111-111-111-111-111-11111|
Tap to rate this tab
 
# A B C D E F G H I J K L M N O P Q R S T U V W X Y Z