Yu Grupa – Crni Leptir tab

YU GRUPA – CRNI LEPTIR (solo tablature)
transkripcija : Srbajdza
(ovo je solo verzija cele pesme,bez akorda)

I deo (solo)   2x

-0-3-5-7---7-5-3-5---5-3-2-3---2-3-2-0-|---------------------------------------|---------------------------------------|---------------------------------------|---------------------------------------|---------------------------------------|
---------------------------------------|--3-7---7-5-7-8-7-3-5--5-3-5-----------|---------------------------------------|---------------------------------------|---------------------------------------|---------------------------------------|
II deo (ulicna svetiljka…)
-----------------------------------|---8-7-5-5--8-7-5-5--7-7--8-7-5-5--|-----------------------------------|-----------------------------------|-----------------------------------|-----------------------------------|
-----------------------------------|-8-7-5-5--8-7-5-5---7-7--8-7-5-5---|-----------------------------------|-----------------------------------|-----------------------------------|-----------------------------------|
(ali ne znaju…) 2x
-----------------------------------|---5-10--8-7-5---5-10--7-8-7-5-----|-----------------------------------|-----------------------------------|-----------------------------------|-----------------------------------|
-----------------------------------|-5-10--8-7-5--5--7-7---8-7-5-5-----|-----------------------------------|-----------------------------------|-----------------------------------|-----------------------------------|
I deo (solo) 2x... III deo (nekad sam leteo…)
-----------------------------------|---8-7-5-5--8-7-5-5--7-7--8-7-5-5--|-----------------------------------|-----------------------------------|-----------------------------------|-----------------------------------|
-----------------------------------|-8-7-5-5--8-7-5-5---7-5-3-5--5-5---|-----------------------------------|-----------------------------------|-----------------------------------|-----------------------------------|
(crni leptiru bezi u noc…) 2x----------------------------------|---5-10--8-7-5---5-10--7-8-7-5----|----------------------------------|----------------------------------|----------------------------------|----------------------------------|
----------------------------------|-5-10--8-7-5--5---7-5-3-5--5-5----|----------------------------------|----------------------------------|----------------------------------|----------------------------------|
I deo 2x...
Please rate this tab:
x1.0