Zappa Frank - Muffin Man tab

--------------------------|------------------------|--------------------------|--------------------------|------------------------|--------------------------|--------------------------|------------------------|--------------------------|--------------------------|--2---------------------|--------------------------|--------------2----2-3-4--|----4-4--------4/-9/--4-|--------------2----2-3-4--|--2----2-3-4--------------|------------------------|--2----2-3-4--------------|
------------------------------------------------------------------------|------------------------------------------------------------------------|------------------------------------------------------------------------|--2---------------------------------------------------------------------|----4-4--2h4p2h4p2h4p2h4p2h4p2h4p2h4p2h4p2h4p2h4p2h4p2h4p2h4p2h4p2h4/-2-|------------------------------------------------------------------------|
--------------------------|--------------------------------|--------------------------|-----------------------14-14-14-|--------------------------|--------------------------------|--------------------------|--2-----------------------------|--------------2----2-3-4--|----4-4--------14/-4-x----------|--2----2-3-4--------------|---------------------x----------|
----------------------------12h14p12-----14p12-----------------------------------|--12-14-12-14-12---------------------14--------14-14p12--------------------------|-----------------13-0-0-0-0-----------------------------11r-9h11p9-9h11p9--------|--------------------------------------------------------------------------11-9---|-------------------------------------------------------------------------------9-|---------------------------------------------------------------------------------|
---------------------------------------------------------------------------------|---------------12h14p12----------------12----------------12----14----14-12-------|-------9/11h13----------13p11h13p11h13----13-11-13-11-13----13----13-------13-13-|--9h11---------------------------------------------------------------------------|---------------------------------------------------------------------------------|---------------------------------------------------------------------------------|
---------------------------------------------------------------|---------------------------------------------------------------|--11r9h11----9-------9h11-11b-11b-11b--------------------------|----------11---11-11------------------9h11p9h11----------6h9p6h|------------------------------------------------10/9-7h9-------|---------------------------------------------------------------|
------------------------------------------------------|------------------------------------------------------|-------------9b-----------------9b--------------------|--9-11-11-11---11-11-11-9-11-11---11-9-11-9-11-9-11-9-|------------------------------------------------------|------------------------------------------------------|
-------------------------------------------------------------|-------------------------------------------------------------|-----11b-9------11b-11b-11b11r-9----9-11-11r9-11-9-11-9------|--11-------11-9------------------11---------------------11-9-|-------------------------------------------------------------|-------------------------------------------------------------|
-----------------------------------------------|------------------12b12b12---------------14-14-|---------------------------13-11b9-11/13-------|--------------x--------------------------------|--9--7--------x--------------------------------|-------9-7-9--x--------------------------------|
--------------------------------------------------------------12---16-12-14b-14-|--12-14-12-14-14----------14----14-12-14----14-------14p12h14-------------------|-----------------13p11-------12----------13----16p13----------------------------|-----------------------14-------------------------------------------------------|--------------------------------------------------------------------------------|--------------------------------------------------------------------------------|
--12h14p12-----------------------------------------------------------------------|-----------14-14p12----14p11-----------------------------------------------------|--------------------13-------9-9-9-9h11------------------------------------------|----------------------------------------12-9-7--------------9------9------9------|-----------------------------------------------9p7---7h9/11---9h11---9h11---9h11-|---------------------------------------------------9-----------------------------|
-------------------------------------------------------------|-------------------------------------------------------------|-------------------------------------------------------------|--9------9------9----9------9--------------------------------|----9h11---9h11---11---9h11---11b11p9-9h11p9-7h9p7-----------|---------------------------------------------------9-9-7---7-|
------------------------------------------|------------------------------------------|------------------------------------------|------------------------------------------|----7-------------------------------------|--9---9-7-9---9p7-9-9p7-9-9p7-9-9p7-9-9p7-|
---------------------------------------|----------------------------------|---------------------------------------|----------------------------------|------------------9--------------------|----------------------------------|---------------------------------------|------2-------2-----------------2-|------------------7--------------------|--2-----4-2-4---4-------2-2-4-4---|--9-9p7-9-7h9p7h9----9-7-7/4-4/2-2---4-|----4-------------4-4-4-----------|
----------------------------------|----7-7---9-9-7-9/12-12-9-12/14-14-12-14/|--------------------5-5-7-7-5-5-7-|--9-----9--------------------------------|------------4-4-6-6---------------|-----------------------------------------|--2-4-4/6-6-----------------------|-----------------------------------------|----------------------------------|-----------------------------------------|----------------------------------|-----------------------------------------|
--16-16-14-16/19--19--19p16-19b--16-19-19-21p19p16p14-|------------------------------------------------------|------------------------------------------------------|------------------------------------------------------|------------------------------------------------------|------------------------------------------------------|
--16p14-16-14/16--14/16-----x-16h19p16-21p19----19~19-19b-19b19--19-|--------------------------x------------------19---------------------|------------------------x-------------------------------------------|--------------------------------------------------------------------|--------------------------------------------------------------------|--------------------------------------------------------------------|
--19b--16-19p16-19/22-19-------19---------------------------19h21-19-21p19p16----|-------------------------21p19----19--19b--21p19-16-x-----x-------------------19-|------------------------------------------------------x-x------------------------|---------------------------------------------------------------------------------|---------------------------------------------------------------------------------|---------------------------------------------------------------------------------|
----------------------------------------------------|--------------------------|--19b17----17p14--14--12h14p12----12----12----12-14-|--14b---14b---14b---14b---|-------------------------------13----13----13-------|--------------------------|----------------------------------------------------|--------------------------|----------------------------------------------------|--------------------------|----------------------------------------------------|--------------------------|
-------------------------------------12----|-------------14-------------------|--14/17--12--14----------12----12-14----14-|--14b---14------14b---14-12-------|-------------------11-13----13-------------|----------------------------13-11-|-------------------------------------------|----------------------------------|-------------------------------------------|----------------------------------|-------------------------------------------|----------------------------------|
-------------------------------------------------|--12---------------------------------------------|-----13---------------------9------9------9------|--------14-14-11-------9h11---9h11---9h11---9h11-|-------------------------------------------------|-------------------------------------------------|
--------------------------------------------------------------|----------------------14--------------------------------------|--9------9-11-9-11/13----11-9-11b9----------9-----------------|----9-11---------------------------9-9------------------------|---------------------------------------11-9---9-7---7---------|--------------------------------------------------9---9-9-7-9-|
------------------------------------------------------|-----------------12/14-14-14p12-14-14p12-14-14p12-14--|-----------------11/13-13-----------------------------|--11---11---9-----------------------------------------|--7----9----7-----------------------------------------|-----9----9----9--------------------------------------|
---------------------------------------------------------------------------------|--14p12-14p12---14--14-12-14-12-14-12----14--14p12-14-14p12-14p12-12h14-14p12----|--------------0-----------------------13--------------------------------------13-|---------------------------------------------------------------------------------|---------------------------------------------------------------------------------|---------------------------------------------------------------------------------|
-------------------------12-14-12h14p12-----------------------------------------|--12-9/12-14-------14p12----------------14-14-12--------------------------------|-------------13h16-------------------------------13-11r9----11-9----9-9---------|---------------------------------------------------------11------11-9-9-11-9----|-----------------------------------------------------------------------------11-|--------------------------------------------------------------------------------|
----------------------------------------------------------------------------|-------------------------------------------------------------------------12-|--9---------------------------------------------------9-10-11-11r-9-11p9----|--9---------------------------------9---------9-10-11-----------------------|--9-11-9-7-------7---7-9-10-9-10-11---9h10-11-------------------------------|-----------9-7-9---9--------------------------------------------------------|
--------------------------------------------------------------------------|--12-12-12-15/9-14--------------------------------------------------------|-------------------11-12p11p9-11------------------------------9----9-9-11b|---------------------------------9-9-9-------------------9h11---11--------|---------------------------------------10-9-7-------9/11------------------|----------------------------------------------9-7-7-----------------------|
---9---9-----------12----------------------------------|---------7h9p7b--9-12------------12------------------9-|---------------9--------13p11-------13p11h13p11-9----9-|------------------------------14------------------11---|-------------------------------------------------------|-------------------------------------------------------|
--------------------------------------14b---14b-14b14b|-----14-12-14-12/14-14p12----14-12h14-------14b-------|--------------------------13--------------------------|------------------------------------------------------|------------------------------------------------------|--9---------------------------------------------------|
--14--12-------12----12-14b14b14r-12-------14r-12-14-14-|---------14-12----14-------14b-------14-12--------------|--------------------------------------------------------|--------------------------------------------------------|--------------------------------------------------------|--------------------------------------------------------|
--14-12-------12-----------------------------------------------------------|--------14-------14/12-------14-12-----------------------------------------|-----------12----------13-13-------13/11-9---------9---------9-------------|-------------------------------------------11-9-11-9-11-9-11---11-9--------|--------------------------------------------------------------------11/9-7-|---------------------------------------------------------------------------|
-------------------------------------|-------------------------------------|-------------------------------------|-------------9-----9-----------------|--9-7b---------7-----7---------------|------9-7--9-----9-----9-7-9-7-7-8-9-|
-------------------------------------------------------------|-------------------------------------------------------------|-----------------9-10-11-12-13-16----------18-------18-------|---------9-10-11------------------18-16-18----21p18----21p18-|--7-9/11-----------------------------------------------------|-------------------------------------------------------------|
--------------------------------------------------------------------------|--------------------------------19----17----------------------------------|--18-------18-------21p18----------18----18-------18----18-21p18-18----18-|-----21p18----21p18-------21p18-------------21p18----21-------------21----|--------------------------------------------------------------------------|--------------------------------------------------------------------------|
---------------------------------------------------------------------------------|------------------------------------------------19-21-19--17-19-21-19-17-19-19-2-|--18h21p18--18h21-18h21-20h23-20h23-20p18-20-18----------------------------------|---------------------------------------------------------------------------------|---------------------------------------------------------------------------------|---------------------------------------------------------------------------------|
--19-19-21-19----19-22-22-19-------------------22-x--x--x------------------------|--------------21-------------21-19-21-24-21h24----23-23-x-x-----------14-14-17---|--------------------------------------------------------x-x-x---13/16------------|----------------------------------------------------------x-x-x-x--x-----------1-|------------------------------------------------------------x-x-x--x-------------|--------------------------------------------------------------x-x----------------|
--------------------------------|--------------------------|--------------------------------|--------------------------|--------------------------------|--------------------------|---------x----------------------|--------------------------|---------x--------------x-------|--------------2----2-3-4--|--21/--0-x-19/0-x-19/-0-x-22/---|--2----2-3-4--------------|
-----------------------------|--------------------------|---------------------|-----------------------------|--------------------------|---------------------|-----------------------------|--------------------------|---------------------|--2--------------------------|--------------------------|--2------------------|----4-4------4-4-4-4-4-4-4-4-|--------------2----2-3-4--|----4-4--------------|-----------------------------|--2----2-3-4--------------|---------------------|
------------------|------------------|------------------|------------------|------------------|------------------|------------------|------------------|------------------|------------------|------------------|------------------|------------------|------------------|------------------|------------------|------------------|------------------|------------------|------------------|------------------|------------------|------------------|------------------|
------------------|----------------------|--------------------------|------------------|----------------------|--------------------------|------------------|----------------------|--------------------------|------------------|----------------------|--------------------------|------------------|----------------------|--------------2----2-3-4--|------------------|----------22/---11/---|--2----2-3-4--------------|
-------------------------|-----------------------------|---------12--------------|-----------12----------------|------------11r----------|--------------11r-------12r--|--2----------------------|--9h11-----------------------|----4-4------------------|-----------------------------|-------------------------|-----------------------------|
----------9---------------------------------------------|----------------------14-14-12--14-12-14-14-12----14-12-|--12r9----------11-13--------------------------13-------|-------11-----------------------------------------------|--------------------------------------------------------|--------------------------------------------------------|
---------------------------------------12----12-14p12-----------------------|--14-14-12-14-14-12-14-14-12----14b-14----14----------12--------------------|-----------------------------13--------------------------13p---11-9----11-9-|--------------------------------------------------------------------11-11---|----------------------------------------------------------------------------|----------------------------------------------------------------------------|
------------------------------------------------------------------|-----------------------------------12-12-------12-12--------------|--11b9b-----------------9-11-13-13-------13-13-------13-13-9-11r9-|-------11-9h11-11-11-11-------------------------------------------|------------------------------------------------------------------|------------------------------------------------------------------|
--------------------------------------------------------------------------------|-----------------------------------12-14-12-14-12-------------------------------|--11--11---15-15p13p11-15-15p13p11----------------0-0-0-0-16p13p11-9-9----------|-----------------------------------------------------------------------9--------|-------------------------------------------------------------------------11-9-7-|--------------------------------------------------------------------------------|
----------------------------12-12-12----12-14-14r----12-14-16-|-------------------12-12/14----------14-----------------------|-------9-9-9-11/13--------------------------------------------|-------9------------------------------------------------------|--7-11--------------------------------------------------------|--------------------------------------------------------------|
--15p14h15-14p12-14--15-15-14h15p14-12----12-14h15p14-12-14--15-15-14p12-14--15--|p---------------------------------------14----------------------------------------|---------------------------------------------------------------------------------|---------------------------------------------------------------------------------|---------------------------------------------------------------------------------|---------------------------------------------------------------------------------|
--14h15p14-12-14-14p12-14p12-14--------------------------------------------------|---------------------------------14-14-12----------------------------------------|------------------------------------------13-11-11-9-11-9---------9----9------11-|----------------------------------------------------------11-9-11---11---11-9----|---------------------------------------------------------------------------------|---------------------------------------------------------------------------------|
--12----------------||--------------------||--------------------||--------------------||--------------------||--------------------||
Tap to rate this tab
 
# A B C D E F G H I J K L M N O P Q R S T U V W X Y Z