Photographs tab with lyrics by Zebrahead - Easy chords and tabs for guitar

Zebrahead – Photographs tab

Artist : Zebrahead
Song : Photographs (Solo)
Album : Not the New Album EP (2008)



T T T T T---15-p13p12p10--15-15-p13p12p10--15-15-p13p12p10---|----------------------------------------------------|----------------------------------------------------|----------------------------------------------------| x2----------------------------------------------------|----------------------------------------------------|
T T T T---10-p8p7p5--10-10-p8p7p5--10-p8p7p5-------|--------------------------------------------|--------------------------------------------|--------------------------------------------| --------------------------------------------|--------------------------------------------|
T T ---10-p8p7p5---10-p8p7p5-5h8---|-------------------------------|-------------------------------|-------------------------------| -------------------------------|-------------------------------|
---11b12-12-11b12-12-10-8h10-10-8p7-8---|----------------------------------------|----------------------------------------|----------------------------------------|----------------------------------------|----------------------------------------|
---------------------------------|---12p10-12p10--10-9-10b-9-7-5---|---------------------------------|---------------------------------|---------------------------------|---------------------------------|
--------------------------------------|-----10-10----------------------------|---9-9--9-9---------------------------|------------10-12-12b--10h12----------|------------------------------12-10---|--------------------------------------|
------------------------------------|-------10---------------------------|---9-9----9-------------------------|------------10-12-12b--10-12b--10---|------------------------------------|------------------------------------|
-----------------------------------|-------10--------------------------|---9-9----9-10h12-10-9-10-9-7h9p7--|-----------------------------------|-----------------------------------|-----------------------------------|
___-----------------------------------------13h15-h17-17---|------------10/13\10----/15-15-13--13h15----------------|---10-12-10--------------16-16--------------------------|--------------------------------------------------------|--------------------------------------------------------|--------------------------------------------------------|
h/p = hammer-on / pull-off b = bend T = Tapped Note / = slide Thats It! ;)
Please rate this tab:
x1.0