Zwan - Baby Lets Rock tab

tuning: D A D G B E

--INTRO

|-------------------------------6----||---3---3---3---0-------3------(6)---||---------------------0-------0------||-------------------3----------------||-5---4---3---2---1--------/6--------||------------------------------------|
|------------------------------------||---3---3---3---0-------3------------||---------------------0--------------||-------------------3----------------||-5---4---3---2---1------------------||-0----------------------------------|
--VERSE
|---------------------------------------------------------------||---------------------------------------------------------------||---------------------4-4-4-4-4-4-4-4---------------------------||-0-0-------0-0-------4-4-4-4-4-4-4-4-5-5-5-5-7-7-7-7-0-0-------||-0-0-5h7p5-0-0-5h7p5-2-2-2-2-2-2-2-2-5-5-5-5-7-7-7-7-0-0-5h7p5-||-0-0-------0-0-----------------------5-5-5-5-7-7-7-7-0-0-------|
|---------------------------------------------------------------------||---------------------------------------------------------------------||---------------------4-4-4-4-4-4-4-4-------------------------------9-||-0-0-------0-0-------4-4-4-4-4-4-4-4-5-5-5-5-5-5-5-5-4-4-4-4-7-8-9-9-||-0-0-5h7p5-0-0-5h7p5-2-2-2-2-2-2-2-2-5-5-5-5-5-5-5-5-4-4-4-4-7-8-9-7-||-0-0-------0-0-----------------------5-5-5-5-5-5-5-5-4-4-4-4-7-8-9---|
|---------------------------------------------------------------------||---------------------------------------------------------------------||---------------------4-4-4-4-4-4-4-4-------------------------------9-||-0-0-------0-0-------4-4-4-4-4-4-4-4-5-5-5-5-5-5-5-5-4--/\---7-8-9-9-||-0-0-5h7p5-0-0-5h7p5-2-2-2-2-2-2-2-2-5-5-5-5-5-5-5-5-4--/\---7-8-9-7-||-0-0-------0-0-----------------------5-5-5-5-5-5-5-5-4--/\---7-8-9---| quick slide up and down with hand^
|-------------------||-------------------||-------------------||-0-0---------0-----||-0-0-5h7p5-4-------||-0-0-----------4-3-|
--CHORUS x2|-------------------------------||-3-3-3-3-3-3-3-3-3-3-3-3-------||-2-2-2-2-2-2-2-2-2-2-2-2-3-----||-0-0-0-0-X-X-X-X-X-X-X-X-3--1--||-0-0-0-0-4-4-4-4-3-3-3-3-1--1--||-0-0-0-0--------------------1--|
|-------------------------------------------------6-6-6-6-6-6-6-6-||-3-3-3-3-3-3-3-3-3-3-3-3-3-3-3-3-3-3-3-3-3-3-3-3-6-6-6-6-6-6-6-6-||-2-2-2-2-2-2-2-2-2-2-2-2-2-2-2-2-0-0-0-0-0-0-0-0-0-0-0-0-0-0-0-0-||-0-0-0-0-X-X-X-X-X-X-X-X-X-X-X-X-3-3-3-3-3-3-3-3-X-X-X-X-X-X-X-X-||-0-0-0-0-4-4-4-4-3-3-3-3-2-2-2-2-1-1-1-1-1-1-1-1-6-6-6-6-6-6-6-6-||-0-0-0-0---------------------------------------------------------|
|--------------------||----3---3---3---(0)-||--------------------||--------------------||-/5---4---3---2-----||--------------------|
--VERSE
|---------------------------------------------------------------||---------------------------------------------------------------||---------------------4-4-4-4-4-4-4-4---------------------------||-0-0-------0-0-------4-4-4-4-4-4-4-4-5-5-5-5-7-7-7-7-0-0-------||-0-0-5h7p5-0-0-5h7p5-2-2-2-2-2-2-2-2-5-5-5-5-7-7-7-7-0-0-5h7p5-||-0-0-------0-0-----------------------5-5-5-5-7-7-7-7-0-0-------|
|---------------------------------------------------------------------||---------------------------------------------------------------------||---------------------4-4-4-4-4-4-4-4-------------------------------9-||-0-0-------0-0-------4-4-4-4-4-4-4-4-5-5-5-5-5-5-5-5-4-4-4-4-7-8-9-9-||-0-0-5h7p5-0-0-5h7p5-2-2-2-2-2-2-2-2-5-5-5-5-5-5-5-5-4-4-4-4-7-8-9-7-||-0-0-------0-0-----------------------5-5-5-5-5-5-5-5-4-4-4-4-7-8-9---|
|-----------------------------------------------------------------------------||-----------------------------------------------------------------------------||---------------------4-4-4-4-4-4-4-4-----------------------------------------||-0-0-------0-0-------4-4-4-4-4-4-4-4-5-5-5-5-5-5-5-5-4--/\---7-6-5-4-5-4-3-2-||-0-0-5h7p5-0-0-5h7p5-2-2-2-2-2-2-2-2-5-5-5-5-5-5-5-5-4--/\---7-6-5-4-5-4-3-2-||-0-0-------0-0-----------------------5-5-5-5-5-5-5-5-4--/\---7-6-5-4-5-4-3-2-| quick slide up and down with hand^
--CHORUS
x2|-------------------------------||-3-3-3-3-3-3-3-3-3-3-3-3-------||-2-2-2-2-2-2-2-2-2-2-2-2-3-----||-0-0-0-0-X-X-X-X-X-X-X-X-3--1--||-0-0-0-0-4-4-4-4-3-3-3-3-1--1--||-0-0-0-0--------------------1--|
|-------------------------------------------------6-6-6-6-6-6-6-6-||-3-3-3-3-3-3-3-3-3-3-3-3-3-3-3-3-3-3-3-3-3-3-3-3-6-6-6-6-6-6-6-6-||-2-2-2-2-2-2-2-2-2-2-2-2-2-2-2-2-0-0-0-0-0-0-0-0-0-0-0-0-0-0-0-0-||-0-0-0-0-X-X-X-X-X-X-X-X-X-X-X-X-3-3-3-3-3-3-3-3-X-X-X-X-X-X-X-X-||-0-0-0-0-4-4-4-4-3-3-3-3-2-2-2-2-1-1-1-1-1-1-1-1-6-6-6-6-6-6-6-6-||-0-0-0-0---------------------------------------------------------|
--INTERLUDE
|------------------------------------||------------------------------------||------------------------------------||-0-0---------0-0---------0-0--------||-0-0---------0-0---------0-0--------||-0-0---------0-0---------0-0--------|
|------------------------------------||------------------------------------||------------------------------------||-0-0--X--X-X-0-0--X--X-X-0-0-----/\-||-0-0--X--X-X-0-0--X--X-X-0-0-----/\-||-0-0--X--X-X-0-0--X--X-X-0-0-----/\-| quick slide up and down with hand^
|-------------------------------------||-------------------------------------||-------------------------------------||-0-0---------0-0---------0-0---------||-0-0---------0-0---------0-0---------||-0-0--X\-----0-0--X\-----0-0--X\-----|
|-----||-----||-----||-0-0-||-0-0-||-0-0-|
--SOLO x2|-------------------------------||-3-3-3-3-3-3-3-3-3-3-3-3-------||-2-2-2-2-2-2-2-2-2-2-2-2-3-----||-0-0-0-0-X-X-X-X-X-X-X-X-3--1--||-0-0-0-0-4-4-4-4-3-3-3-3-1--1--||-0-0-0-0--------------------1--|
|-------------------------------------------------||-3-3-3-3-3-3-3-3-3-3-3-3-3-3-3-3-3-3-3-3-3-3-3-3-||-2-2-2-2-2-2-2-2-2-2-2-2-2-2-2-2-0-0-0-0-0-0-0-0-||-0-0-0-0-X-X-X-X-X-X-X-X-X-X-X-X-3-3-3-3-3-3-3-3-||-0-0-0-0-4-4-4-4-3-3-3-3-2-2-2-2-1-1-1-1-1-1-1-1-||-0-0-0-0-----------------------------------------|
--BRIDGE
|-----------------------------------------------------------------||-----------------------------------------------------------------||-----------------2-2-2-2-2-2-2-2-7-7-7-7-7-7-7-7-2-2-2-2-2-2-2-2-||-3-3-3-3-3-3-3-3-2-2-2-2-2-2-2-2-7-7-7-7-7-7-7-7-2-2-2-2-2-2-2-2-||-3-3-3-3-3-3-3-3-0-0-0-0-0-0-0-0-5-5-5-5-5-5-5-5-0-0-0-0-0-0-0-0-||-3-3-3-3-3-3-3-3-------------------------------------------------|
|-----------------------------------------------------------------||-----------------------------------------------------------------||-5-5-5-5-5-5-5-5-------------------------------------------------||-5-5-5-5-5-5-5-5-5-5-5-5-5-5-5-5-3-3-3-3-7-7-7-7-0-0-0-0-0-0-0-0-||-3-3-3-3-3-3-3-3-5-5-5-5-5-5-5-5-3-3-3-3-7-7-7-7-0-0-0-0-0-0-0-0-||-----------------5-5-5-5-5-5-5-5-3-3-3-3-7-7-7-7-0-0-0-0-0-0-0-0-|
|-----------------||-----------------||-----------------||-3-3-3-3-7-7-7-7-||-3-3-3-3-7-7-7-7-||-3-3-3-3-7-7-7-7-|
--CHORUS
|---------------------------------||-3----3----3---------------------||-2----2----2---------------------||-0----X----X---------------------||------4----3---------------------||--------------------5~~--5h6h7~~-|
|-------------------------------------------------6-6-6-6-6-6-6-6-||-3-3-3-3-3-3-3-3-3-3-3-3-3-3-3-3-3-3-3-3-3-3-3-3-6-6-6-6-6-6-6-6-||-2-2-2-2-2-2-2-2-2-2-2-2-2-2-2-2-0-0-0-0-0-0-0-0-0-0-0-0-0-0-0-0-||-0-0-0-0-X-X-X-X-X-X-X-X-X-X-X-X-3-3-3-3-3-3-3-3-X-X-X-X-X-X-X-X-||-0-0-0-0-4-4-4-4-3-3-3-3-2-2-2-2-1-1-1-1-1-1-1-1-6-6-6-6-6-6-6-6-||-0-0-0-0---------------------------------------------------------|
x2|-------------------------------||-3-3-3-3-3-3-3-3-3-3-3-3-------||-2-2-2-2-2-2-2-2-2-2-2-2-3-----||-0-0-0-0-X-X-X-X-X-X-X-X-3--1--||-0-0-0-0-4-4-4-4-3-3-3-3-1--1--||-0-0-0-0--------------------1--|
|--------------------------------------------------------------------||-3-3-3-3-3-3-3-3-3-3-3-3-3-3-3-3-3-3-3-3-3-3-3-3--------------------||-2-2-2-2-2-2-2-2-2-2-2-2-2-2-2-2-0-0-0-0-0-0-0-0--------------------||-0-0-0-0-X-X-X-X-X-X-X-X-X-X-X-X-3-3-3-3-3-3-3-3-7-8-9-10-8-9-10-11-||-0-0-0-0-4-4-4-4-3-3-3-3-2-2-2-2-1-1-1-1-1-1-1-1-7-8-9-10-8-9-10-11-||-0-0-0-0-----------------------------------------7-8-9-10-8-9-10-11-|
--OUTRO
|----------------------------------------------||----------------------------------------------||-------------------------------------9--------||-0-0-------0-0-------0-0-------7-8-9-9-0-0----||-0-0-5h7p5-0-0-5h7p5-0-0-5h7p5-7-8-9-7-0-0----||-0-0-------0-0-------0-0-------7-8-9---0-0----|
Tap to rate this tab
 
# A B C D E F G H I J K L M N O P Q R S T U V W X Y Z