Zyklon – 2000 Years tab

Band: Zyklon
Album: Aeon
Song: Two Thousand Years
Record Label: Candlelight
Tuning: DGCFAD

---------0---0----------|----------0---0---------|-------3---3---3--------|-------2----------------|-2-2-2-1----------------|-0-0-0------------------|X3 pm...
------------------|------------------|---------4--3-----|---------3--2-----|-2-2-2---2--1-----|-0-0-0------------| pm...
---------0---0----------|----------0---0---------|-------3---3---3--------|-------2----------------|-2-2-2-1----------------|-0-0-0------------------|X3 pm...
------------------|------------------|---------4--3-----|---------3--2-----|-2-2-2---2--1-----|-0-0-0------------| pm...
gtr1-----------|-----------|-----------|-----------|-----------|--1/4-1/3--|X4
gtr2---------------------|---------------------|---------------------|---------------------|-3-5-6-5-6-5-3-5-----|-1-3-4-3-4-3-1-3-----|X4 pm.............
--------------|--------------|--------------|--------------|--4/11-5/10---|--------------|X2
---0---0----------|----0---0---------|-3---3---3--------|-2----------------|-1----------------|------------------|
---------0---0----------|----------0---0---------|-------3---3---3--------|-------2----------------|-2-2-2-1----------------|-0-0-0------------------|X2 pm...
------------------|------------------|---------4--3-----|---------3--2-----|-2-2-2---2--1-----|-0-0-0------------| pm...
---0---0----------|----0---0---------|-3---3---3--------|-2----------------|-1----------------|------------------|
---------0---0----------|----------0---0---------|-------3---3---3--------|-------2----------------|-2-2-2-1----------------|-0-0-0------------------|X2 pm...
------------------|------------------|---------4--3-----|---------3--2-----|-2-2-2---2--1-----|-0-0-0------------| pm...
gtr1-----------|-----------|-----------|-----------|-----------|--1/4-1/3--|X4
gtr2---------------------|---------------------|---------------------|---------------------|-3-5-6-5-6-5-3-5-----|-1-3-4-3-4-3-1-3-----|X4 pm.............
--------------|--------------|--------------|--------------|--4/11-5/10---|--------------|X2
------------------------------------------1----|------------------------------------------ph---|-----------------------------------------------|-----------------------------------------------|-2-2-3-2-2-4-4/5-4-2-4-5-4-2-4-2-4-5-4-2-------|-0-0-1-0-0-------2-0-2-3-2-0-2-0-2-3-2-0-------|X6listen 2 the song 4 the pms
------------10-------------------------------|------------ph-------------------------------|-----------bend------------------------------|---------------------------2-4-5-------------|-2-2-2-2/6------3-3-2-2--2-------4-5-1-------|-0-0-0-0--------1-1-0-0--0-------------------|
------------10--------------------------------------------------|------------ph--------------------------------------------------|-----------bend-------------------------------------------------|------------------------------3333333222222222211111100000000---|-2-2-2-2/6------3-3-2-2-2-2/6-4444444333333333322222211111111---|-0-0-0-0--------1-1-0-0-0-0---0000000000000000000000000000000---| im not 100% sure about this part
------------10---------------------------------1-----|------------ph---------------------------------ph----|-----------bend--------------------------------------|-----------------------------------------------------|-2-2-2-2/6------3-3--4-2-4-5-4-2-4-2-4-5-4-2---------|-0-0-0-0--------1-1--2-0-2-3-2-0-2-0-2-3-2-0---------|
------------------------------------------------------------|------------------------------------------------------------|------------------------------------------------------------|------------------------------------------------------------|---4-2-4-5-4-2-4-2-4-5-4-2-----4-2-4-5-4-2-8---7-8-7-2------|---2-0-2-3-2-0-2-0-2-3-2-0--1--2-0-2-3-2-0-6-0-5-6-5-0--3---| vib vib
only gtr 1------------------------------------------------------------|------------------------------------------------------------|------------------------------------------------------------|------------------------------------------------------------|---4-2-4-5-4-2-4-2-4-5-4-2-----4-2-4-5-4-2-8---7-8-7-2------|---2-0-2-3-2-0-2-0-2-3-2-0--1--2-0-2-3-2-0-6-0-5-6-5-0--3---| vib vib
gtr2-------------------------------------------------------------|-------------------------------------------------------------|-------------------------------------------------------------|-------------------------------------------6-0-5-6-5-0-3-----|---4-2-4-5-4-2-4-2-4-5-4-2-----4-2-4-5-4-2-------------------|---2-0-2-3-2-0-2-0-2-3-2-0--1--2-0-2-3-2-0-------------------| vib
only gtr 1------------------------------------------------------------|------------------------------------------------------------|------------------------------------------------------------|------------------------------------------------------------|---4-2-4-5-4-2-4-2-4-5-4-2-----4-2-4-5-4-2-8---7-8-7-2------|---2-0-2-3-2-0-2-0-2-3-2-0--1--2-0-2-3-2-0-6-0-5-6-5-0--3---| vib vib
gtr2-------------------------------------------------------------|-------------------------------------------------------------|-------------------------------------------------------------|-------------------------------------------6-0-5-6-5-0-3-----|---4-2-4-5-4-2-4-2-4-5-4-2-----4-2-4-5-4-2-------------------|---2-0-2-3-2-0-2-0-2-3-2-0--1--2-0-2-3-2-0-------------------| vib
------------------------------------------1----|------------------------------------------ph---|-----------------------------------------------|-----------------------------------------------|-2-2-3-2-2-4-4/5-4-2-4-5-4-2-4-2-4-5-4-2-------|-0-0-1-0-0-------2-0-2-3-2-0-2-0-2-3-2-0-------|X4listen 2 the song 4 the pms
---------0---0----------|----------0---0---------|-------3---3---3--------|-------2----------------|-2-2-2-1----------------|-0-0-0------------------|X3 pm...
------------------|------------------|---------4--3-----|---------3--2-----|-2-2-2---2--1-----|-0-0-0------------| pm...
---0---0----------|----0---0---------|-3---3---3--------|-2----------------|-1----------------|------------------|
---------0---0----------|----------0---0---------|-------3---3---3--------|-------2----------------|-2-2-2-1----------------|-0-0-0------------------|X2 pm...
------------------|------------------|---------4--3-----|---------3--2-----|-2-2-2---2--1-----|-0-0-0------------| pm...
gtr1-----------|-----------|-----------|-----------|-----------|--1/4-1/3--|X4
gtr2---------------------|---------------------|---------------------|---------------------|-3-5-6-5-6-5-3-5-----|-1-3-4-3-4-3-1-3-----|X4 pm.............
--------------|--------------|--------------|--------------|--4/11-5/10---|--------------|
-----------|-----------|-----------|-----------|--3/6-3/5--|--1/4-1/3--| gtr 2 joins in 1 last time b4 the solo
---0---0----------|----0---0---------|-3---3---3--------|-2----------------|-1----------------|------------------|
---------0---0----------|----------0---0---------|-------3---3---3--------|-------2----------------|-2-2-2-1----------------|-0-0-0------------------|X2 pm...
------------------|------------------|---------4--3-----|---------3--2-----|-2-2-2---2--1-----|-0-0-0------------| pm...
Repeats riffs from solo until t fades out well thts all if ur confused by anythin email me septic_flesh241@hotmail.com
Please rate this tab:
x1.0