Song name
# A B C D E F G H I J K L M N O P Q R S T U V W X Y Z

A Change Of Pace - A Song The World Can Sing Out Loud tab

e|---------4--7--4-----------4--7--4-----------4-----------------------------|
B|---5--7-----------7--5--7-----------7--5--7--------------------------------|
G|---------------------------------------------------------------------------|
D|---------------------------------------------------------------------------|
A|---------------------------------------------------------------------------|
E|---------------------------------------------------------------------------|

e|---------4--7--4-----------4--7--4-----12--11------------------------------|
B|---5--7-----------7--5--7-----------7----------12--------------------------|
G|---------------------------------------------------------------------------|
D|---------------------------------------------------------------------------|
A|---------------------------------------------------------------------------|
E|---------------------------------------------------------------------------|
Tap to rate this tab
# A B C D E F G H I J K L M N O P Q R S T U V W X Y Z