Song name
# A B C D E F G H I J K L M N O P Q R S T U V W X Y Z

A Day To Remember - Have Faith In Me tab

----------------------------------------------------------------------------
			     HAVE FAITH IN ME- A Day to Remember
----------------------------------------------------------------------------
Tabbed by: Johnny
Email: Quiksilver6016@yahoo.com

Tuning:Drop D

e|-------------------------------------------------------------------------|
B|----8----8----8----8-----------------------------8----8----8----8--------|
G|------------------------10----10----9----9---------------------------10--|
D|-10---10---10---10---10----10----10---10---10-10---10---10---10---10-----|
A|-------------------------------------------------------------------------|
E|-------------------------------------------------------------------------|

e|-------------------------------------------------------------------------|
B|-------------------------------------------------------------------------|
G|----10----9----9---------------------------------------------------------|
D|-10----10---10-----------------------------------------------------------|
A|-------------------------------------------------------------------------|
E|-------------------------------------------------------------------------|
Tap to rate this tab
# A B C D E F G H I J K L M N O P Q R S T U V W X Y Z