Song name
# A B C D E F G H I J K L M N O P Q R S T U V W X Y Z

A Flock Of Seagulls - The More You Live The More You Love tab

Tabbed by Gargoyle2500, AKA 101Volts.

Tuning: Down one eighth of a step. (Use a tuner) Chorus effect is used.

E-2--5-5--2-2-5-5----------------|
B--------------------------------|
G--------------------------------|
D--------------------------------|
A--------------------------------|
E--------------------------------|

E-2--5-5-------------------------|
B------------3--1-1--------------|
G----------4---------------------|
D--------------------------------|
A--------------------------------|
E--------------------------------|

E-2--5-5---9--7-7----------------|
B--------------------------------|
G--------------------------------|
D--------------------------------|
A--------------------------------|
E--------------------------------|
Tap to rate this tab
# A B C D E F G H I J K L M N O P Q R S T U V W X Y Z