Song name
# A B C D E F G H I J K L M N O P Q R S T U V W X Y Z

A Great Big Pile Of Leaves - Vampires In Love tab

Guitar 1
(0:00)
e|3---3---3---3---|3---3---3---3---|10--10--10--5---|5---5---5(7)5---|
B|3---3---3---0---|0---0---0---0---|10--10--10--0---|0---0---0---0---|
G|0---0---0---0---|0---0---0---0---|0---0---0---0---|0---0---0---0---|
D|2---2---2---2---|2---2---2---2---|9---9---9---4---|4---4---4---4---|
A|3---3---3---3---|3---3---3---3---|10--10--10--5---|5---5---5---5---|
E|----------------|----------------|----------------|----------------|


(0:26)
e|3-----------3---|----------------|10----------5---|----------------|
B|3-----------0---|----------------|10----------0---|----------------|
G|0-----------0---|----------------|0-----------0---|----------------|
D|2-----------2---|----------------|9-----------4---|----------------|
A|3-----------3---|----------------|10----------5---|----------------|
E|----------------|----------------|----------------|----------------|


(0:53)
e|3---3---3---3---|--------3-------|10--10--10--5---|--------5h7-----|
B|3---3---3---0---|--------0h3-----|10--10--10--0---|--------0-------|
G|0---0---0---0---|--------0-------|0---0---0---0---|--------0-------|
D|2---2---2---2---|--------2-------|9---9---9---4---|--------4-------|
A|3---3---3---3---|--------3-------|10--10--10--5---|--------5-------|
E|----------------|----------------|----------------|----------------|


(1:07) - Same as (0:00).


(1:20) - Same as (0:26).


(1:27)
e|3-3-3-3-3-3-3-3-|3-3-3-3-3-3-3-3-|10-10-10-10-10-10-5-5-|5-5-5-5-5-5-5-5-|
B|3-3-3-3-3-3-0-0-|0-0-0-0-0-0-0-0-|10-10-10-10-10-10-0-0-|0-0-0-0-0-0-0-0-|
G|0-0-0-0-0-0-0-0-|0-0-0-0-0-0-0-0-|0--0--0--0--0--0--0-0-|0-0-0-0-0-0-0-0-|
D|2-2-2-2-2-2-2-2-|2-2-2-2-2-2-2-2-|9--9--9--9--9--9--4-4-|4-4-4-4-4-4-4-4-|
A|3-3-3-3-3-3-3-3-|3-3-3-3-3-3-3-3-|10-10-10-10-10-10-5-5-|5-5-5-5-5-5-5-5-|
E|----------------|----------------|----------------------|----------------|


(1:54) - Same as (0:00).


(2:21) - Same as (1:27).


(2:48) - Same as (0:00).


End
e|3---3---3---3---|3---3---3---3---|10--10--10--5---|
B|3---3---3---0---|0---0---0---0---|10--10--10--0---|
G|0---0---0---0---|0---0---0---0---|0---0---0---0---|
D|2---2---2---2---|2---2---2---2---|9---9---9---4---|
A|3---3---3---3---|3---3---3---3---|10--10--10--5---|
E|----------------|----------------|----------------|



Guitar 2
(0:00)
e|-----------------|----------------|-----------------|--------------------|
B|-----------------|----------------|-----------------|--------------------|
G|14--12------12-14|--12----12------|14--12------12-14|--16-14-12-14-12--12|
D|--------14-------|------14----14--|--------14-------|----------------14--|
A|-----------------|----------------|-----------------|--------------------|
E|-----------------|----------------|-----------------|--------------------|


(0:26)
e|------14--------|----------------|------12--------|----------------|
B|--15------15----|--------15------|--15------15----|----------------|
G|16--16------16--|----------------|14--14------14--|--------14------|
D|----------------|----------------|----------------|----------------|
A|----------------|----------------|----------------|----------------|
E|----------------|----------------|----------------|----------------|


(0:53)
e|----------------|----------------|----------------|----------------|
B|----------------|--------------8\|15--15--15------|----------------|
G|12--12--12--9---|--------9h12----|------------14--|-------14h16--14|
D|----------------|----------------|----------------|----------------|
A|----------------|----------------|----------------|----------------|
E|----------------|----------------|----------------|----------------|

e|----------------|----------------|----------------|----------------|
B|----------------|----------------|----------------|----------------|
G|12--12--12--9---|--------9h12--9/|7---7---7-------|-------------12-|
D|----------------|----------------|------------9---|--------7h9-----|
A|----------------|----------------|----------------|----------------|
E|----------------|----------------|----------------|----------------|


(1:07) - Same as (0:00).


(1:20) - Same as (0:26).


(1:27)
e|--------------------|--------------------|-----------------|-----------------|
B|--------------------|--------------------|-----------------|-----------------|
G|12-12-12-12-12-12-12|12-12-12-12-12-12-12|14-14-14-14-14-16|16-16-16-16-16-14|
D|--------------------|--------------------|-----------------|-----------------|
A|--------------------|--------------------|-----------------|-----------------|
E|--------------------|--------------------|-----------------|-----------------|

e|----------------|----------------|----------------|----------------|
B|----------------|----------------|----------------|----------------|
G|16-14-12--------|14-12-----------|-----12-12-12-12|-----12-12-12-14|
D|---------14--14-|------14-12-----|12-14-----------|12-14-----------|
A|----------------|----------------|----------------|----------------|
E|----------------|----------------|----------------|----------------|

e|----------------|----------------|----------------|-----------------|
B|-----15-----15--|17-----15-----17|-----15-----15--|17-----15--------|
G|16-16--16-16--16|--16-16--16-16--|16-16--16-16--16|--16-16--16-16-14|
D|----------------|----------------|----------------|-----------------|
A|----------------|----------------|----------------|-----------------|
E|----------------|----------------|----------------|-----------------|

e|----------------|----------------|----------------|----------------|
B|----------------|----------------|----------------|----------------|
G|16-14-12--------|14-12-----------|-----12-12-12-12|-----12-12-12-14|
D|---------14--14-|------14-12-----|12-14-----------|12-14-----------|
A|----------------|----------------|----------------|----------------|
E|----------------|----------------|----------------|----------------|


(1:54)
e|----------------|----------------|----------------|----------------|
B|----------------|----------------|----------------|----------------|
G|16~-------------|(16)------------|(16)------------|(16)------------|
D|----------------|----------------|----------------|----------------|
A|----------------|----------------|----------------|----------------|
E|----------------|----------------|----------------|----------------|


(2:07) - Same as (0:53).


(2:21) - Same as (1:27).


(2:48) - Same as (1:54).


(3:01) - Same as (0:00).


End
e|-----------------|----------------|----------------|
B|-----------------|----------------|----------------|
G|14--12------12-14|--12----12------|14--12------12--|
D|--------14-------|------14----14--|--------14------|
A|-----------------|----------------|----------------|
E|-----------------|----------------|----------------|
Tap to rate this tab
 
# A B C D E F G H I J K L M N O P Q R S T U V W X Y Z