Song name
# A B C D E F G H I J K L M N O P Q R S T U V W X Y Z

A Perfect Murder - Body And Blood tab

Artist-A Perfect Murder
Song-Body and Blood
Tabbed by- caseykronan
Tuning---Drop D


|---------------------------------------------|
|---------------------------------------------|
|---------------------------------------------|
|-1-0-0---x--xxx------------------------------|
|-1-0-0---x--xxx------------------------------|  x4
|-1-0-0---x--xxx------------------------------|

|---------------------------------------------|
|---------------------------------------------|
|---------------------------------------------|
|---------------------------------------------|
|--3--2---------------------------------------|
|--5--4---------------------------------------|  add at end of 4th time

Verse

|-----------------------------------------------------------------|
|-----------------------------------------------------------------|
|-----------------------------------------------------------------|
|---------------------------------------------------{1--4---1--0--|
|---------------------------------------------------{1--4---1--0--|
|-1/12-xxxxx-13-13-13-10-12--xxxxxx-----{1--4---1--0--------------|      
Things in {} are only played the first time


Chorus


|-----------------------------------------------------------------------------------|
|-----------------------------------------------------------------------------------|
|-----------------------------------------------------------------------------------|
|----------------------------------------------------0-0--1---0---0---x-xxx-xx-xxx--|
|--------------------------------------------------- 0-0--1---0---0---x-xxx-xx-xxx--|
|--0-12-0-11-0-10-0-7-0-5-6-7----------------0-0--1---0---0---x-xxx-xx- xxx---------|


outro


|---------------------------------------------------------|
|---------------------------------------------------------|
|---------------------------------------------------------|
|---------------------------------------------------------|
|---77777--6666--5555--333--0--0--1--0--0---x xxx xx xxx--|
|---77777--6666--5555--333--0--0--1--0--0---x-xxx-xx-xxx--|


This is my first tab, so I hope you like it!
Tap to rate this tab
# A B C D E F G H I J K L M N O P Q R S T U V W X Y Z