Song name
# A B C D E F G H I J K L M N O P Q R S T U V W X Y Z

A Skylit Drive - Just Stay tab

This is an amazing song from A Skylit Drive. 
I insist you pick up their new album "RISE". 
It's really an amazing album.


I played this by ear and I'm sure it's correct.



Standard Tuning

/ Slide


Intro Lead
|---------------------------------------------------------------------------|
|--5/7/5-----5------------5/7/5-----5-------------------5/7/5-----5---------|
|---------7----------------------7-----------------------------7------------|
|----------------2-4-------------------2-4---------2-----------------2-4--2-|
|--------------------------------------------2--4---------------------------|
|---------------------------------------------------------------------------|


Intro/Verse Rythm
|--------------------------------------------------------------------|
|--------------------------------------------------------------------|
|------7-----------7------------9--------11----------9---------------|
|--------x8----5------x6----5-----x2--12-----x8---7------------------|
|--------------------------------------------------------------------|
|--7-----------------------------------------------------------------|


Play Rythm Part Through Verse

I won't see you for miles
Hoping every day you find the strength to stay with me
I'm crippled by the sound you make when I walk out
Not too much longer now
Just stay


Chorus 
   B#m          G            D            A
|-------------------------------2-------------------|
|-----3------------3------------3-----------2-------|
|-----4------------0------------------------2-------|
|--------x8-----------x8-----0-----x8----------x8---|
|--2-------------------------------------0----------|
|--------------3------------------------------------|

At the end of each chord before you transition to the next play this.

|-------2-----|-------2-----|----2--2------|-------0--------|
|-----3---3---|-----3---3---|----3----3----|----2----2------|
|-----4-----4-|-----0-----0-|-----------0--|----2------2----|
|-------------|-------------|--0-----------|----------------|
|--2----------|-------------|--------------|--0-------------|
|-------------|--3----------|--------------|----------------|



Another life I'd always be there
Another night of barely breathing
But when the lights go out I'll be listening
Just stay


Verse 2
|--------------------------------------------------------------------|
|--------------------------------------------------------------------|
|------7-----------7------------9--------11----------9---------------|
|--------x8----5------x6----5-----x2--12-----x8---7------------------|
|--------------------------------------------------------------------|
|--7-----------------------------------------------------------------|


I cannot turn around or take back everything I missed while I was away
Just stay
I need for you to believe
If it were up to me we'd live out every day the same
  G                       D
But I won't see you for days


         B#m
Another life I'd always be there
         G
Another night of barely breathing
               D                       A
But when the lights go out I'll be listening

Just stay
         B#m
Another life I'd never understand
          G
Another night I'll give you all I can
           D                             A
I know I need you now more than I ever did

Just stay


Instrumental

B#m G D A

Bridge

|------------2-----|
|-------3------3---|
|-----0---0------0-|
|------------------| x4
|------------------|
|--3---------------|

Just stay, stay with me
Just stay a little longer

Note: Then at the build up palm mute G then A.
Tap to rate this tab
 
# A B C D E F G H I J K L M N O P Q R S T U V W X Y Z