Song name
# A B C D E F G H I J K L M N O P Q R S T U V W X Y Z

A Thorn For Every Heart - Youre The One tab

artist:a thorn for every heart
album:it's hard to move you
song:you're the one


tuning:standard


intro: gtr 2

e|------------------------------------------------------------|
B|------------------------------------------------------------|
G|--555--777--4444444444444---------555--777--4444444444444---|
D|-------------------------------5----------------------------|
A|------------------------------------------------------------|
E|------------------------------------------------------------|


then...

e|----------------------|       |-------------------------------|
B|----------------------|       |-------------------------------|
G|-----555--777--44444--|       |-------------------------------|
D|--5-------------------| (2x)  |--5--7-7777777777--9999999999--|
A|----------------------|       |-------------------------------|   
E|----------------------|       |-------------------------------|
                                        ..........  ..........


Verse 1:  
   gtr 1

e|--------------------------------------------------------|
B|--------------------------------------------------------|
G|---------------9999999999--5555555555--44444--7777777---|
D|--55555555555--9999999999--5555555555--44444--7777777---| (2x)
A|--55555555555--7777777777--3333333333--22222--5555555---|
E|--33333333333-------------------------------------------|

   gtr 2

e|-------------------|      |---------------------------------------------|
B|--333--0000000000--|      |--333--0000---333--0000----------------------|
G|-------------------| (2x) |--------------------------0000--22222--44444-| 
D|-------------------|      |---------------------------------------------|
A|-------------------|      |---------------------------------------------|
E|-------------------|      |---------------------------------------------|


Pre-Chorus: gtr 1 only

e|-----------------------------------------------|
B|-----------------------------------------------|
G|--------------7777777777--9999--7777--555555---|
D|--2222222222--7777777777--9999--7777--555555---|
A|--2222222222--5555555555--7777--5555--333333---|
E|--0000000000-----------------------------------|

then...

e|-----------------------------------------------|
B|-----------------------------------------------|
G|--------------7777777777--9~--7~--5~-----------|
D|--2222222222--7777777777--9~--7~--5~-----------|
A|--2222222222--5555555555--7~--5~--3~-----------|
E|--0000000000-----------------------------------|


Chorus:

   gtr 1

e|-----------------------------------------------|
B|-----------------------------------------------|
G|------------99999999--55555555--4444--777777---|
D|--55555555--99999999--55555555--4444--777777---| (2x)
A|--55555555--77777777--55555555--2222--555555---|
E|--33333333-------------------------------------|



Pre-Verse: gtr 2

e|------------------------------------------------------------|
B|------------------------------------------------------------|
G|--555--777--4444444444444---------555--777--4444444444444---|
D|-------------------------------5----------------------------|
A|------------------------------------------------------------|
E|------------------------------------------------------------|



repeat verse
repeat pre-chorus
repeat chorus



Bridge: gtr 2

e|------------------------------------------------------------|
B|------------------------------------------------------------|
G|--555--777--4444444444444---------555--777--4444444444444---|
D|-------------------------------5----------------------------|
A|------------------------------------------------------------|
E|------------------------------------------------------------|


then...

e|----------------------|       |-------------------------------|
B|----------------------|       |-------------------------------|
G|-----555--777--44444--|       |-------------------------------|
D|--5-------------------| (2x)  |--5--7-7777777777--9999999999--|
A|----------------------|       |-------------------------------|   
E|----------------------|       |-------------------------------|
                                        ..........  ..........



final chorus:

e|-------------------------------------------|
B|-------------------------------------------|
G|------------99999999--55555555--4444--7~---|
D|--55555555--99999999--55555555--4444--7~---| (2x)
A|--55555555--77777777--55555555--2222--5~---|
E|--33333333---------------------------------|


_____________________________________________________________________________

    okay...uhm...that's it...i'm 95% sure that all parts that i put is correct...
i'll just try to tab out the piano parts and update this tab so you'll know :)
The piano parts is in the chorus and in the bridge,i'll try to translate it 
in guitar...
just wait :)
_____________________________________________________________________________

    by the way,i'm not really sure about the number of notes,but the notes
 are correct,i feel it!:)

    i tabbed this song because there's no tab for this song before this,and i
 needed one,
so i did it myself!
Our band wanted to play this so i tabbed it!so try this to,it's correct
_____________________________________________________________________________

dr+pd++d r+cks!
LONG LIVE EARTH!XD
Tap to rate this tab
# A B C D E F G H I J K L M N O P Q R S T U V W X Y Z