A Touch Of Class - All Around The World tab

ATC(A Touch of Class)- All Around the World (la la la la la)
The band's website is: http://en.wikipedia.org/wiki/Around_The_World_%28La_La_La_La_La%29

I obviously don't listen to this but it sounds great on metal distortion.
Cheap simple tab...

E-----------------|-----------------|-----------------|-----------------|
B-----------------|--17-------17----|--12------12-----|-13-------13-----|
G-----------------|-----14-17-------|-----9-12--------|----10-14--------|
D-----------------|-----------------|-----------------|-----------------|
A-----------------|-----------------|-----------------|-----------------|
E-----------------|-----------------|-----------------|-----------------|
 
E-----------------|-----------------|-----------------|-----------------|
B--15-------15----|-----------------|-----------------|-----------------|
G-----12-16-------|-----------------|-----------------|-----------------|
D-----------------|-----------------|-----------------|-----------------|
A-----------------|-----------------|-----------------|-----------------|
E-----------------|-----------------|-----------------|-----------------|
 
That's all. Repeat it till your head hurts.
-StrY
Tap to rate this tab
 
# A B C D E F G H I J K L M N O P Q R S T U V W X Y Z