Song name
# A B C D E F G H I J K L M N O P Q R S T U V W X Y Z

Aagas - Untitled tab

aagas - untitled 1
composed by R.J. Heyting and R. Duursma
tabbed by Dr. Robbert
this is from my own band, tell me what you think

intro:
guitar1(clean (acoustic sounds better, but then you'll have to switch guitars really fast), 
very gently)
  Bm      Em      Bm      F#         \
guitar2(heavy distortion)            |
e|2-2-2-2-7-7-7-7-7-7-7-7-6-6-6-6    |play twice
B|-0-0-0-0-8-8-8-8-7-7-7-7-7-7-7-7   /

  Bm      D   G     F#      Bm      
e|2-2-2-2-7-7-10-10-7-7-7-7-6-6-6-6
B|-0-0-0-0-7-7-10-10-8-8-8-8-7-7-7-7

  Bm      A           F#      Bm
e|2-2-2-2-9--9--9--9--6-6-6-6-7-7-7-7
B|-0-0-0-0-10-10-10-10-7-7-7-7-7-7-7-7

riff1
both guitars(heavy distortion)
e|--------------------------------
B|--------------------------------
G|4-4-4-4-4-4-4-4-4-4-4-4-6-6-6-6->let ring
D|4-4-4-4-2-2-2-2-4-4-4-4-4-4-4-4-
A|2-2-2-2-2-2-2-2-2-2-2-2-4-4-4-4-
D|--------2-2-2-2---------4-4-4-4-
  \_________play twice___________/

e|--------------------------------
B|--------------------------------
G|4-4-4-4-7-7-7-7-6-6-6-6-4-4-4-4->let ring
D|4-4-4-4-7-7-5-5-4-4-4-4-4-4-4-4-
A|2-2-2-2-5-5-5-5-4-4-4-4-2-2-2-2-
D|------------5-5-4-4-4-4---------

e|--------------------------------
B|--------------------------------
G|4-4-4-4-9-9-9-9-6-6-6-6-4-4-4-4->let ring
D|4-4-4-4-7-7-7-7-4-4-4-4-4-4-4-4-
A|2-2-2-2-7-7-7-7-4-4-4-4-2-2-2-2-
D|--------7-7-7-7-4-4-4-4---------

riff2
guitar1(distortion)
e|------------------------------------------------
B|7--7--7--7--12-12-12-12-12-12-12-12-11-11-11-11-
G|x--x--x--x--x--x--x--x--x--x--x--x--x--x--x--x--
D|4--4--4--4--9--9--9--9--9--9--9--9--8--8--8--8--
A|------------------------------------------------
D|------------------------------------------------
  \___________play twice_________________________/

e|------------------------------------------------
B|7--7--7--7--12-12-15-15-12-12-12-12-11-11-11-11-
G|x--x--x--x--x--x--x--x--x--x--x--x--x--x--x--x--
D|4--4--4--4--9--9--12-12-9--9--9--9--8--8--8--8--
A|------------------------------------------------
D|------------------------------------------------

e|------------------------------------------------
B|7--7--7--7--14-14-14-14-11-11-11-11-12-12-12-12-
G|x--x--x--x--x--x--x--x--x--x--x--x--x--x--x--x--
D|4--4--4--4--11-11-11-11-8--8--8--8--9--9--9--9--
A|------------------------------------------------
D|------------------------------------------------

guitar2(distortion) at the same time                            
e|------------------------------------------------
B|------------------------------------------------
G|4--4--4--4--12-12-12-12-11-11-11-11-11-11-11-11-
D|x--x--x--x--x--x--x--x--x--x--x--x--x--x--x--x--
A|2--2--2--2--10-10-10-10-9--9--9--9--9--9--9--9--
D|------------------------------------------------
  \___________play twice_________________________/

e|------------------------------------------------
B|------------------------------------------------
G|4--4--4--4--11-11-14-14-12-12-12-12-11-11-11-11-
D|x--x--x--x--x--x--x--x--x--x--x--x--x--x--x--x--
A|2--2--2--2--9--9--12-12-10-10-10-10-9--9--9--9--
D|------------------------------------------------

e|------------------------------------------------
B|------------------------------------------------
G|4--4--4--4--14-14-14-14-11-11-11-11-11-11-11-11-
D|x--x--x--x--x--x--x--x--x--x--x--x--x--x--x--x--
A|2--2--2--2--12-12-12-12-9--9--9--9--9--9--9--9--
D|------------------------------------------------
Tap to rate this tab
 
# A B C D E F G H I J K L M N O P Q R S T U V W X Y Z