Guitaretab - guitar tabs
Song name
# A B C D E F G H I J K L M N O P Q R S T U V W X Y Z

Aaron - Little Love tab

Little Love by AaRON.


    D                F#m
e----5---5---5---5---5---5---5---5-|
B---7---7---7---7---7---7---7---7--|
G--7---7---7---7---6---6---6---6---|    For the intro and the verses
D----------------------------------|
A----------------------------------|
E----------------------------------|


e-10-----10-----10-----10-----9------9------9------9-----|
B---10-----10-----10-----10----10-----10-----10-----10---|  For the
G-----11-----11-----11-----11----11-----11-----11-----11-|  chorus.
D--------------------------------------------------------|
A--------------------------------------------------------|
E--------------------------------------------------------|

*intro:  D   F#m   x2


Verse:
D                     F#m
Come on dance around
D                     F#m
shine upon the ground
D       F#m
from me to you


D                     F#m
don't you know i'm strong
D                     F#m
I could win the world
D       F#m
for you for you

[ Tab from: http://www.guitaretab.com/a/aaron/163717.html ]
D                     F#m
don't you ever cry
D                     F#m
I would stop breathin'
D       F#m
for you for you

Chorus
D           F#m
don't worry life is easy
D           F#m
don't worry life is easy


*intro.


D                     F#m
did you ever fly
D                     F#m
let me teach you how
D       F#m
I'll do I'll do


D                     F#m
drive upon the mountains
D                     F#m
dive into the moon
D       F#m
I'll do Iíll do


Chorus
D           F#m
don't worry life is easy
D           F#m
don't worry life is easy


*intro.


D                     F#m
be my unicorn
D                     F#m
I'll chase all the dragons
D       F#m
for you for you


D                     F#m
I'll build you a castle silver gold
D                     F#m
it's your favorite color i'have been told


Chorus
D           F#m
don't worry life is easy
D           F#m
don't worry life is easy


*outro:

D   F#m  (Repeat as much as you want.)
Related for Little Love tab