Abandon All Ships - Guardian Angel tab

Abandon All Ships - Guardian Angel
Drop D tuning

Sorry, did not tab the lead in the chorus, will try to get back and do that shortly.

chorus:
follow this chord progression
e|-------------------------------------|
b|-------------------------------------|
g|-------------------------------------| (2x)
d|---0----8----3----10-----------------|
a|---0----8----3----10-----------------|
D|---0----8----3----10-----------------|

first breakdown:
e|------------------------------------------------|
b|------------------------------------------------|
g|------------------------------------------------|
d|-0--000-0---8--888-8---3--333-3---10--101010-10-| (Fill in whatever notes)
a|-0--000-0---8--888-8---3--333-3---10--101010-10-|
D|-0--000-0---8--888-8---3--333-3---10--101010-10-|


e|----------------------------------------------------------|
b|----------------------------------------------------------|
g|---------------------------------------------------5b-----|
d|-------3-3-3----------------------3-3-3-------------------|
a|-0000--3-3-3--0000-000-------0000-3-3-3--0000-000---------|
D|-0000--3-3-3--0000-000--1p0--0000-3-3-3--0000-000---------|
   ****         **** ***       ****        **** ***

e|-------------------------------------------------------|
b|-------------------------------------------------------|
g|-------------------------------------------------------|
d|-------3-3-3-------------------1-1-1-------------------|
a|-0000--3-3-3--0000-000----0000-1-1-1--0000-000---------|
D|-0000--3-3-3--0000-000----0000-1-1-1--0000-000---------|
   ****         **** ***    ****        **** ***

chorus:
follow this chord progression
e|-------------------------------------|
b|-------------------------------------|
g|-------------------------------------| (2x)
d|---0----8----3----10-----------------|
a|---0----8----3----10-----------------|
D|---0----8----3----10-----------------|


(2:54-3:10)
e|--------------------------------------------|
b|--------------------------------------------|
g|--------------------------------------------|
d|--------------------3-----------------------|
a|--0-000-0-000-0-0-0-3--0-0-0--4-3-2-3-------|
D|--0-000-0-000-0-0-0-3--0-0-0--4-3-2-3-------|
    * *** * *** * * *    * * *

e|----------------------------------------------------|
b|----------------------------------------------------|
g|----------------------------------------------------|
d|--------3-3-3----------------------3-3-3------------|
a|--0000--3-3-3--0000--000-------000-3-3-3--4-3-2-3---|
D|--0000--3-3-3--0000--000--1p0--000-3-3-3--4-3-2-3---|
    ****         ****  ***       ***

e|----------------------------------------------------|   
b|----------------------------------------------------|
g|-1414141414141414/1212121212\10101010101010/1414----|	(Listen for where the chords change)
d|-X-X-X-X-X-X-X-X--X-X-X-X-X--X-X-X-X-X-X-X--X-X-----|
a|-1212121212121212/1010101010\8-8-8-8-8-8-8-/1212----|
D|----------------------------------------------------|


chorus:
follow this chord progression
e|-------------------------------------|
b|-------------------------------------|
g|-------------------------------------| (2x)
d|---0----8----3----10-----------------|
a|---0----8----3----10-----------------|
D|---0----8----3----10-----------------|


| /  slide up
| \  slide down
| h  hammer-on
| p  pull-off
| ~  vibrato
| +  harmonic
| x  Mute note
| *  Palm mute


Tap to rate this tab
 
# A B C D E F G H I J K L M N O P Q R S T U V W X Y Z