Guitaretab - guitar tabs
Song name
# A B C D E F G H I J K L M N O P Q R S T U V W X Y Z

Abba - The Winner Takes It All tab

The Winner Takes It All
ABBA

intro

e|---6-5-3-1----3-1-0-------8-6-5-3-1-0--------------------------------------|
B|-1------------------3---3------------3-1-----------------------------------|
G|------------2--------------------------------------------------------------|
D|---------------------------------------------------------------------------|
A|---------------------------------------------------------------------------|
E|---------------------------------------------------------------------------|

(repeat)

Verse:

I don't wanna talk \ About things we've gone through/ Though its hurting me\ Now its history / ...

e|----0-1--\-----------/------------\-----------/------------------------------|
B|-1-3-----\-----1-1---/-1----------\-1---------/------------------------------|
G|-------2-\-2-3-----3-/---3-2-0-3--\---3-2-0-3-/------------------------------|
D|---------\-----------/------------\-----------/------------------------------|
A|-----------------------------------------------------------------------------|
E|-----------------------------------------------------------------------------|

Chorus:

The winner takes it all / The loser standing small \ Beside the victory / Thats her destiny
[ Tab from: http://www.guitaretab.com/a/abba/21869.html ]
e|-----6-6-5-5-/-----3-3-1-1-\---8-8-6-6-/-6-5-3-5-6---------------------------|
B|-1-1---------/-------------\3-3-------/--------------------------------------|
G|-------------/-2-2---------\----------/--------------------------------------|
D|-----------------------------------------------------------------------------|
A|-----------------------------------------------------------------------------|
E|-----------------------------------------------------------------------------|


I donít wanna talk
About the things weíve gone through
Though itís hurting me
Now itís history
Iíve played all my cards
And thatís what youíve done too
Nothing more to say
No more ace to play

The winner takes it all
The loser standing small
Beside the victory
Thatís her destiny

I was in your arms
Thinking I belonged there
I figured it made sense
Building me a fence
Building me a home
Thinking Iíd be strong there
But I was a fool
Playing by the rules

The gods may throw a dice
Their minds as cold as ice
And someone way down here
Loses someone dear
The winner takes it all
The loser has to fall
Itís simple and itís plain
Why should I complain.

But tell me does she kiss
Like I used to kiss you?
Does it feel the same
When she calls your name?
Somewhere deep inside
You must know I miss you
But what can I say
Rules must be obeyed

The judges will decide
The likes of me abide
Spectators of the show
Always staying low
The game is on again
A lover or a friend
A big thing or a small
The winner takes it all

I donít wanna talk
If it makes you feel sad
And I understand
Youíve come to shake my hand
I apologize
If it makes you feel bad
Seeing me so tense
No self-confidence
But you see
The winner takes it all
The winner takes it all......
Related for The Winner Takes It All tab