Song name
# A B C D E F G H I J K L M N O P Q R S T U V W X Y Z

Abduction - Love And Hate tab

This is one of my own songs.

Intro
|-x------x------x---|
|-x------x------x---|
|-x------2------x---|x1
|-x------x------2---|
|-2------x------x---|
|-3------3------3---|


Main Riff
|-3------3------3---|
|-3------3------3---|
|-0------2------0---|x3
|-0------0------2---|
|-2------0------0---|
|-3------3------3---|

Chorus
|-3------2------0---|
|-3------3------1---|
|-0------2------0---|x3
|-0------0------2---|
|-2------x------3---|
|-3------x------0---|

Solo
/=hit strings
|-3/33-/333-/3/3|
|-3/33-/333-/3/3|
|-0/00-/222-/0/0|x2
|-0/00-/000-/2/2|
|-2/22-/000-/0/0|
|-3/33-/333-/3/3|
Tap to rate this tab
# A B C D E F G H I J K L M N O P Q R S T U V W X Y Z