Guitaretab - guitar tabs
Song name
# A B C D E F G H I J K L M N O P Q R S T U V W X Y Z
Home / A / Abel / Onderweg tab

Abel - Onderweg tab

Intro:


e|-0--0-2-3-2--3-5-7-3-2-3-2-0-|
B|-----------------------------|
G|-----------------------------|
D|-----------------------------|
A|-----------------------------|
E|-----------------------------|

e|0--0-3-2-0------3-3--2--|
B|-----------3-1----------|
G|------------------------|
D|------------------------|
A|------------------------|
E|------------------------|


Verse
      Am           G
 Doe de deur dicht
F                  E
 Straten lijken te huilen
F                 E
 Wolken lijken te vluchten
        Am         G
 Stap de bus in
F                 E
 Mensen lijken te kijken
F                 E
 Maar ik wil ze ontwijken
           Dm
voordat ze mij zien


Chorus:
C			       G
 Het is allang verleden tijd
Dm                        Am
 Dat je mijn verjaardag niet vergat
  	  	     G		   F
 Je onvoorwaardelijk koos voor mij


Verse:
	Am		G
 Ik zie de velden
F			E
 Langs me heen gaan huizen
F			E
 Het is stil achter de ruiten
	Am 		G
Wie kan mij zien
F			E
 In blauw verlichtte treinen
F		   E  
 Je hart zo dicht bij me, 
	   Dm
maar het klopt niet

Chorus:
C		          G
 En het is allang verleden tijd
Dm			Am			G
 Je zwarte haren en je lach dat je heel de wereld voor mij was
C			     G
 Het zit nog veel te diep in mij
Dm			    Am		       G		 F
 Dat ik mocht delen wat jij had, dat je door m'n haren ging en zei


Verse:
	Am		G 
Je kent m'n stem niet
F			E
 Wie ik ben is wat je nu ziet
F			E
 Wil je dansen met illusies in gedachten
	  Am
 Ben je verder dan het heden
F			E
 Wil je terug naar het verleden
	 Dm 
Zegt je dat iets
[ Tab from: http://www.guitaretab.com/a/abel/157932.html ]
Chorus:
C		          G
 En het is allang verleden tijd
Dm			Am			G
 Rode wijn op het terras dat je heel de wereld voor mij was
C			     G
 Het zit nog veel te diep in mij
Dm			    Am		       G		 F
 Dat ik vergat hoe jij me zag, dat ik zo anders ben dan jij


Solo:
e --------------------------------------------
B --------------------15-17-------------------
G ---14--14-17-16--17--------17-16--14---13---
D --------------------------------------------
A --------------------------------------------
E --------------------------------------------

e ------------------------------------------------
B ------------------------------------------------
G ---14--14-17-16--14-12-----14-17-17-17-16-------
D -------------------------------------------14---
A ------------------------------------------------
E ------------------------------------------------

e -----------------------------------
B --------------------15-17----------
G ---14--14-17-16--17--------17-14---
D -----------------------------------
A -----------------------------------
E -----------------------------------





Last chorus and verse play same.


jij bent niet alleen van mij
ik kan de wereld laten zien
dat het zo beter is misschien
het is al lang verleden tijd
dat ik vergat hoe jij me zag
dat ik zo anders ben dan jij

Verse:
      Am           G
Ik loop de straat in
F                  E
maar het zal me nooit verwarmen
F                 E
omdat het mij niet kan omarmen
        Am         G
wie zou mij zien
F                 E
het liefst zou ik willen schreeuwen.
F                 E
ik zou oneindig willen schreeuwen,
           Dm
maar het gaat niet


Chorus:
C		          G
jij bent niet alleen van mij
Dm			Am			G
ik kan de wereld laten zien, dat het zo beter is misschien
C			     G
het is al lang verleden tijd
Dm			    Am		       G		 F
dat ik vergat hoe jij me zag, dat ik zo anders ben dan jij
Related for Onderweg tab