Guitaretab - guitar tabs
Song name
# A B C D E F G H I J K L M N O P Q R S T U V W X Y Z

Abney Park - Breathe Acoustic tab

Pretty sure this one is right.

e----------------------------|
B---------0h1----1-0-3p1-0h1-|
G-----2----------------------|
D----------------------------|
A--0-------------------------|
E-------------3--------------|


e----------------------------|
B-------0h1-3-5-5-3-5/65-3p1-|
G-----2----------------------|
D----------------------------|
A--0-------------------------|
E-------------3--------------|
[ Tab from: http://www.guitaretab.com/a/abney-park/243936.html ]
e----------------------------|
B----1-0h1------3---5---3----|
G----2-0h2-------------------|
D----------------------------|
A-0--------------------------|
E----------0h3----3---3---3--|



e-------------0-----------0--|
B-0-------1-------1-------1--|
G-0-----2---2---2---2-----2--|
D----------------------------|
A----0--------------------0--|
E----------------------------|

The rest of the song is pretty much the same. (Playing Am as the basic chord)



| /  slide up
| h  hammer-on
| p  pull-off
Related for Breathe Acoustic tab
Breathe Acoustic chords by Abney Park