Song name
# A B C D E F G H I J K L M N O P Q R S T U V W X Y Z

Above The Law - Break Away tab

#-----------------------------------PLEASE NOTE----------------------------#
#This file is the authors own work and represents their interpretation of this 
##song. you may only use this for private study, scholarship, or research.
#--------------------------------------------------------------------------#
                                     BREAK AWAY
                                  Artist: Above The Law
                                Tabbed by: Trevor Miles
                              e-mail: guitartrevor25@yahoo.com
 INTRO-
e:-|----------------------------------------------------------------------|
B:-|----------------------------------------------------------------------|
G:-|----------------------------------------------------------------------|
D:-|--2---2---2---2---3---3---3---3--5--3--2---2---2---2---3---3---3---3--|
A:-|0---0---0---0---0---0---0---0------------0---0---0---0---0---0---0---0|
E:-|----------------------------------------------------------------------|

e:|-------------------------|
B:|-------------------------|
G:|-------------------------|
D:|-------------------------|
A:|---2222---2222---2222-2-2|
E:|---3333---3333---3333-3-3|
 CHORUS-
e:|--------------------------------------------------|
B:|--------------------------------------------------|
G:|------------10-1010-1010--5-55-55-----------------|
D:|---7-77-77--10-1010-1010--5-55-55--5-55-55--33--55|
A:|---7-77-77---8--8-8--8-8--3-33-33--5-55-55--33--55|
E:|---5-55-55-------------------------3-33-33--11--33|

e:|--------------------------------------------------------------------|
B:|--------------------------------------------------------------------|
G:|------------10-1010-1010--5-55-55-----------------------------------|
D:|---7-77-77--10-1010-1010--5-55-55--5-55-55--3xx3xx3xx3xx5xx5xx5-----|
A:|---7-77-77---8--8-8--8-8--3-33-33--5-55-55--3xx3xx3xx3xx5xx5xx5-----|
E:|---5-55-55-------------------------3-33-33--1xx1xx1xx1xx3xx3xx3-----|

 VERSE 1-
e:-|----------------------------------------------------------------------|
B:-|----------------------------------------------------------------------|
G:-|----------------------------------------------------------------------|
D:-|--2---2---2---2---3---3---3---3--5--3--2---2---2---2---3---3---3---3--|
A:-|0---0---0---0---0---0---0---0------------0---0---0---0---0---0---0---0|
E:-|----------------------------------------------------------------------|

e:|----------------|
B:|----------------|
G:|----------------|
D:|----------------|
A:|-----3---3---3--|
E:|---2---2---2----|

e:-|----------------------------------------------------------------------|
B:-|----------------------------------------------------------------------|
G:-|----------------------------------------------------------------------|
D:-|--2---2---2---2---3---3---3---3--5--3--2---2---2---2---3---3---3---3--|
A:-|0---0---0---0---0---0---0---0------------0---0---0---0---0---0---0---0|
E:-|----------------------------------------------------------------------|

e:|-------------------------|
B:|-------------------------|
G:|-------------------------|
D:|-------------------------|
A:|---2222---2222---2222-2-2|
E:|---3333---3333---3333-3-3|
 CHORUS-
e:|--------------------------------------------------|
B:|--------------------------------------------------|
G:|------------10-1010-1010--5-55-55-----------------|
D:|---7-77-77--10-1010-1010--5-55-55--5-55-55--33--55|
A:|---7-77-77---8--8-8--8-8--3-33-33--5-55-55--33--55|
E:|---5-55-55-------------------------3-33-33--11--33|

e:|--------------------------------------------------------------------|
B:|--------------------------------------------------------------------|
G:|------------10-1010-1010--5-55-55-----------------------------------|
D:|---7-77-77--10-1010-1010--5-55-55--5-55-55--3xx3xx3xx3xx5xx5xx5-----|
A:|---7-77-77---8--8-8--8-8--3-33-33--5-55-55--3xx3xx3xx3xx5xx5xx5-----|
E:|---5-55-55-------------------------3-33-33--1xx1xx1xx1xx3xx3xx3-----|

 VERSE 2-
e:-|----------------------------------------------------------------------|
B:-|----------------------------------------------------------------------|
G:-|----------------------------------------------------------------------|
D:-|--2---2---2---2---3---3---3---3--5--3--2---2---2---2---3---3---3---3--|
A:-|0---0---0---0---0---0---0---0------------0---0---0---0---0---0---0---0|
E:-|----------------------------------------------------------------------|

e:|----------------|
B:|----------------|
G:|----------------|
D:|----------------|
A:|-----3---3---3--|
E:|---2---2---2----|

e:-|----------------------------------------------------------------------|
B:-|----------------------------------------------------------------------|
G:-|----------------------------------------------------------------------|
D:-|--2---2---2---2---3---3---3---3--5--3--2---2---2---2---3---3---3---3--|
A:-|0---0---0---0---0---0---0---0------------0---0---0---0---0---0---0---0|
E:-|----------------------------------------------------------------------|

e:|-------------------------|
B:|-------------------------|
G:|-------------------------|
D:|-------------------------|
A:|---2222---2222---2222-2-2|
E:|---3333---3333---3333-3-3|


CHORUS-
e:|--------------------------------------------------|
B:|--------------------------------------------------|
G:|------------10-1010-1010--5-55-55-----------------|
D:|---7-77-77--10-1010-1010--5-55-55--5-55-55--33--55|
A:|---7-77-77---8--8-8--8-8--3-33-33--5-55-55--33--55|
E:|---5-55-55-------------------------3-33-33--11--33|

e:|--------------------------------------------------------------------|
B:|--------------------------------------------------------------------|
G:|------------10-1010-1010--5-55-55-----------------------------------|
D:|---7-77-77--10-1010-1010--5-55-55--5-55-55--3xx3xx3xx3xx5xx5xx5-----|
A:|---7-77-77---8--8-8--8-8--3-33-33--5-55-55--3xx3xx3xx3xx5xx5xx5-----|
E:|---5-55-55-------------------------3-33-33--1xx1xx1xx1xx3xx3xx3-----|

SOLO-
e:|---------------------------------------------------------------------|
B:|---------------------------------------------------------------------|
G:|---------------------------------------------------------------------|
D:|---7--9-10-9----9-10-9-7-5-7-5---5-7-5---5-7-5---5-7-5---5-7-5-------|
A:|-------------10----------------7-------7-------7-------7--------7-5-7|
E:|---------------------------------------------------------------------|

e:|---------------------------------------------------------------------|
B:|---------------------------------------------------------------------|
G:|---------------------------------------------------------------------|
D:|--5-7h9-7-9-10-9----9-10-9----9-10-9----9-10-9---9-10-9----9-10h12---|
A:|-----------------10--------10--------10--------10-------10-----------|
E:|---------------------------------------------------------------------|

e:|-----------------------5-8-5---5-8-5---5-8-5-------------------------|
B:|-------------------5-8-------8-------8-------8-5---------------------|
G:|---------------5-7-------------------------------7-5-----------------|
D:|-----------5-7---------------------------------------7-5-3-2---------|
A:|-------5-7-----------------------------------------------------------|
E:|---5-8---------------------------------------------------------------|

 VERSE 3-
e:|---------------------------------------------------------------------|
B:|---------------------------------------------------------------------|
G:|---------------------------------------------------------------------|
D:|---222222-333333-555555-222222-333333-555555-000000-000000-----------|
A:|---000000-000000-000000-000000-000000-000000-222222-333333-222222----|
E:|-----------------------------------------------------------333333----|

e:|-------------------------|
B:|-------------------------|
G:|-------------------------|
D:|-------------------------|
A:|---2222---2222---2222-2-2|
E:|---3333---3333---3333-3-3|

CHORUS-
e:|--------------------------------------------------|
B:|--------------------------------------------------|
G:|------------10-1010-1010--5-55-55-----------------|
D:|---7-77-77--10-1010-1010--5-55-55--5-55-55--33--55|
A:|---7-77-77---8--8-8--8-8--3-33-33--5-55-55--33--55|
E:|---5-55-55-------------------------3-33-33--11--33|

e:|--------------------------------------------------------------------|
B:|--------------------------------------------------------------------|
G:|------------10-1010-1010--5-55-55-----------------------------------|
D:|---7-77-77--10-1010-1010--5-55-55--5-55-55--3xx3xx3xx3xx5xx5xx5-----|
A:|---7-77-77---8--8-8--8-8--3-33-33--5-55-55--3xx3xx3xx3xx5xx5xx5-----|
E:|---5-55-55-------------------------3-33-33--1xx1xx1xx1xx3xx3xx3-----|

e:|--------------------------------------------------|
B:|--------------------------------------------------|
G:|------------10-1010-1010--5-55-55-----------------|
D:|---7-77-77--10-1010-1010--5-55-55--5-55-55--33--55|
A:|---7-77-77---8--8-8--8-8--3-33-33--5-55-55--33--55|
E:|---5-55-55-------------------------3-33-33--11--33|

e:|--------------------------------------------------------------------|
B:|--------------------------------------------------------------------|
G:|------------10-1010-1010--5-55-55-----------------------------------|
D:|---7-77-77--10-1010-1010--5-55-55--5-55-55--3xx3xx3xx3xx5xx5xx5-----|
A:|---7-77-77---8--8-8--8-8--3-33-33--5-55-55--3xx3xx3xx3xx5xx5xx5-----|
E:|---5-55-55-------------------------3-33-33--1xx1xx1xx1xx3xx3xx3-----|

 OUTRO-
e:-|----------------------------------------------------------------------|
B:-|----------------------------------------------------------------------|
G:-|----------------------------------------------------------------------|
D:-|--2---2---2---2---3---3---3---3--5--3--2---2---2---2---3---3---3---3--|
A:-|0---0---0---0---0---0---0---0------------0---0---0---0---0---0---0---0|
E:-|----------------------------------------------------------------------|

e:|-----------------------|
B:|-----------------------|
G:|-----------------------|
D:|---------------0--2----|
A:|-----3---3---3----0----|
E:|---2---2---2-----------|
Tap to rate this tab
 
# A B C D E F G H I J K L M N O P Q R S T U V W X Y Z