Song name
# A B C D E F G H I J K L M N O P Q R S T U V W X Y Z

Abruptum - De Profundis Mors Vas Cousumet tab

Help us improve GuitareTab! Take a short survey!
De Profundis Mors Vas Cousumet

By Abruptum

From the "Nordic Metal" Compilation

Transcribed by Andrew Anton

This is a really cool song by Abruptum,who considered by many to be the most
evil band in the world Although there aren't many different guitar parts
to this song, it's not a short song. Also note that there is no bass in this
song. If you have trouble playing this one, you shouldn't be playing guitar!!!

This song is tuned to D and is 2 1/2 steps down

(Evil sounding pick scrape)
|------------|
|------------|
|------------|
|------------|
|------------|
|-x/////////-|

A)       "Yaaaaaaaaa...!"
|-------------------------------|
|-------------------------------|
|-------------------------------|
|-------------------------------|
|---6-----0---------------0-----|
|------7--0---------------0-----|

B).    .   .     .    .   .    .
|-----------------------------------|
|-----------------------------------|
|-----------------------------------|
|-----------------------------------|
|-1----3----1----4----1----3----0---|
|-1----3----1----4----1----3----0---|
Related for De Profundis Mors Vas Cousumet tab