Song name
# A B C D E F G H I J K L M N O P Q R S T U V W X Y Z

Absent Minded - Plugin tab

Intro /last with chorus:
E|-------------------------------------------------------|
B|-------------------------------------------------------|
G|--x-555--7--9------5--7--9-----5--7--9-----------------|
D|--x-55x--x--x---x55x--x---x-x33x--x---x--x333-/77\-5---|  x2
A|--x-333--5--7---x553--5--7--x333--5--7---x333-/77\-5---|
E|----------------x33---------x11----------x111-/55\-3---|

 Verse:
E|----------------------------------------|
B|----------------------------------------|
G|--x-55-x5p--x---------------------------|
D|--x-55-x5p--x55-x5p--x33x3333--/77--55--| x2
A|--x-33-x3p--x55-x5p--x33x3333--/77--33--|
E|-------------33-x3p--x11x1111--/55--33--|

     Bridge:                                                                   
                                                        |1st time | |2d time|
E|-----------------------------------------------------------------|-----------|
B|-----------------------------------------------------------------|-----------|
G|------4------4-----------5------5--------------------------------|-----------|
D|----4---4------4-------5---5------5------5555555--333--77--5555--|--77--999--|
A|--2-------2------2---3-------3------3----5555555--333--77--5555--|--77--999--|
E|-----------------------------------------3333333--111--55--3333--|--55--777--|

     Chorus:
E|-----------------------------------------------|
B|-----------------------------------------------|
G|--5555-----------------------------------------|
D|--5555--5555--3333x-3333--77--555--------------| x2
A|--3333--3333--3333x-3333--77--555--------------|
E|--------3333--1111x-1111--55--333--------------|

End with: 
E|----|
B|----|
G|----|
D|--3-|
A|--3-|
E|--1-|
Tap to rate this tab
 
# A B C D E F G H I J K L M N O P Q R S T U V W X Y Z