Song name
# A B C D E F G H I J K L M N O P Q R S T U V W X Y Z

Ac Dc - Carry Me Home tab

ACDC - Carry Me Home
          
|----------------------------------------------------------------|
|--12b---12b-12b-------------------------------------------------|
|--12b-9-12b-12b-----------10-10-10-7-7-7~\--5-5\----------------|
|----------------------------------------------------------------|
|----------------------------------------------------------------|
|----------------------------------------------------------------|

|--------------------------------8-10\--13p10-10--15b-15b-13-15b-|
|------------------------8h10h11---------------------------------|
|---------7-9----8h10h11-----------------------------------------|
|--7-9-10-----10-------------------------------------------------|
|----------------------------------------------------------------|
|----------------------------------------------------------------|

A(Play x4)
|----------------------------------------------------------------|
|----------------------------------------------------------------|
|----------------------------------------------------------------|
|-7-7-7-7-7-0----------------------------7-7-7-7-7---------------|
|-5-5-5-5-5-0h8-8-8-8-8-10-10-10-10-10-0h5-5-5-5-5---------------|
|-------------6-6-6-6-6--8--8--8--8--8-0-------------------------|

B(Play once then back to A)
|----------------------------------------------------------------|
|----------------------------------------------------------------|
|----------------------------------------------------------------|
|-----------------7-7-7-7-7-7-7-7--------------------------------|
|-5-5-5-5-5-5-5-5-5-5-5-5-5-5-5-5-5-5-5-5-5-5-5-5----------------|
|-3-3-3-3-3-3-3-3-----------------3-3-3-3-3-3-3-3----------------|
B Con. 
|----------------------------------------------------------------|
|----------------------------------------------------------------|
|----------------------------------------------------------------|
|----------------------------------------------------------------|
|-7-7-7-7-7-7-7-7-7-9-9-9-10-10-10-11-11-11----------------------|
|-5-5-5-5-5-5-5-5-5-7-7-7-8--8--8--9--9--9-----------------------|

A(Play x4)
|----------------------------------------------------------------|
|----------------------------------------------------------------|
|----------------------------------------------------------------|
|-7-7-7-7-7-0----------------------------7-7-7-7-7---------------|
|-5-5-5-5-5-0h8-8-8-8-8-10-10-10-10-10-0h5-5-5-5-5---------------|
|-------------6-6-6-6-6--8--8--8--8--8-0-------------------------|

B
|----------------------------------------------------------------|
|----------------------------------------------------------------|
|----------------------------------------------------------------|
|-----------------7-7-7-7-7-7-7-7--------------------------------|
|-5-5-5-5-5-5-5-5-5-5-5-5-5-5-5-5-5-5-5-5-5-5-5-5----------------|
|-3-3-3-3-3-3-3-3-----------------3-3-3-3-3-3-3-3----------------|
B Con. 
|----------------------------------------------------------------|
|----------------------------------------------------------------|
|----------------------------------------------------------------|
|----------------------------------------------------------------|
|-7-7-7-7-7-7-7-7-7-9-9-9-10-10-10-11-11-11----------------------|
|-5-5-5-5-5-5-5-5-5-7-7-7-8--8--8--9--9--9-----------------------|



*-Bend the 7 and then hold it and hit the 7 on B then release em and during the release hit the 5 on G.
Solo
|----------------------------------------------------------------|
|-----7----------------------------------------------------------|
|--*7b-5--10-10-10-7-7~------------------------------------------|
|----------------------------------------------------------------|
|----------------------------------------------------------------|
|----------------------------------------------------------------|

I'll be finishing it later just seein how it looks to everyone atm before I go further into it.
Tap to rate this tab
# A B C D E F G H I J K L M N O P Q R S T U V W X Y Z