Song name
# A B C D E F G H I J K L M N O P Q R S T U V W X Y Z

Ac Dc - Bonny tab

e|-3-----------------------------------------------------------------------|
B|-3-----------------------------------------------------------------------|
G|-4-0-0-0-2-4-4-2-0-0-0-------0-0-0-2-4-4-7--9--7--7-9-9-7-4-4-7-5-4-2-0-0|
D|-5---------------------2-0-0-2-------------------------------------------|
A|-5-----------------------------------------------------------------------|
E|-3-----------------------------------------------------------------------|


e|---------------------------3-----------------------------------------------|
B|---------------------------3-----------------------------------------------|
G|-----0-0-4-7-9-7-4-2-2-4-2-4-----------------------------------------------|
D|-0-2-----------------------5-----------------------------------------------|
A|---------------------------5-----------------------------------------------|
E|---------------------------3-----------------------------------------------|

AC/DC Live: Double Disc Edition

Bonny.
Tap to rate this tab
# A B C D E F G H I J K L M N O P Q R S T U V W X Y Z