Song name
# A B C D E F G H I J K L M N O P Q R S T U V W X Y Z

Ac Dc - Girls Got Rhythm tab

#----------------------------------PLEASE NOTE---------------------------------#
#This file is the author's own work and represents their interpretation of the #
#song. You may only use this file for private study, scholarship, or research. #
#------------------------------------------------------------------------------##

                                GIRLS GOT RHYTHM
                              As recorded by AC/DC
                      (From the 2007 Album HIGHWAY TO HELL)

Words and Music by Angus Young, Malcom Young and Bon Scott
Arranged by Angus Young, Malcom Young and Bon Scott
Transcribed by Jordan Baker (transferred by Marcus McLean)

Gtr I (E A D G B E) - '(dist.)'
Gtr II (E A D G B E) - '(dist.)'
Gtr III (E A D G B E) - '(dist.)'

   Intro
    Moderate Rock Q=138
    D5    C5           A5          C5     A5      D5     C5
   4/4
    Gtr II
                                 PM         PM
    E E E E +Q   E E   E     E E E Q      E E     Q  E E +Q   E E
||-------------------|-------------------------||-----------------|
||o------------------|------------------------o||-----------------|
||--7-----5-(5)------|-------------5-----------||-7----5-(5)------|
||--7-----5-(5)------|-------7-7---5------7----||-7----5-(5)------|
||o----------------7h|=9---------0----------0-o||---------------7-|
||-------------------|-------------------------||-----------------|
|
|   Gtr I
|                              PM|          PM
|   E E E E +Q   E E   E     E E E Q      E E     Q  E E +Q   E E
||-------------------|-------------------------||-----------------|
||o------------------|------------------------o||-----------------|
||--7-----5-(5)------|-------------------------||-7----5-(5)------|
||--7-----5-(5)------|-0-----2------------2----||-7----5-(5)------|
||o-5-----3-(3)----0-|-x-----0-0-0-3b3.5--0-0-o||-5----3-(3)----0-|
||-----------------0-|-2b2.5-----0-------------||---------------0-|


  A5          C5       A5  D5     C5         A5
            PM         PM
  E     E E E Q      E E   Q  E E +Q   E E   E     E E E E E Q
|------------------------|-----------------|--------------------||
|------------------------|-----------------|--------------------||
|-------------5----------|-7----5-(5)------|--------------------||
|-------7-7---5------7---|-7----5-(5)------|-------7-7---7------||
|-9---------0----------0-|---------------7h|=9---------9--------||
|------------------------|-----------------|--------------------||
|
|         PM|          PM
| E     E E E Q      E E   Q  E E +Q   E E   E     E E E E E Q
|------------------------|-----------------|--------------------||
|------------------------|-----------------|--------------------||
|------------------------|-7----5-(5)------|--------------------||
|-0-----2------------2---|-7----5-(5)------|-0-----2-2---2------||
|-x-----0-0-0-3b3.5--0-0-|-5----3-(3)----0-|-x-----0-0-0-0------||
|-2b2.5-----0------------|---------------0-|-2b2.5-----2--------||


   Verses 1 & 2
    $
    D5    C5           A5          C5     A5
    Gtr II
                                 PM         PM
    E E E E +Q   E E   E     E E E Q      E E  8x
||-------------------|-------------------------||
||o------------------|------------------------o||
||--7-----5-(5)------|-------------5-----------||
||--7-----5-(5)------|-------7-7---5------7----||
||o----------------7h|=9---------0----------0-o||
||-------------------|-------------------------||
|
|   Gtr I
|                              PM|          PM
|   E E E E +Q   E E   E     E E E Q      E E  8x
||-------------------|-------------------------||
||o------------------|------------------------o||
||--7-----5-(5)------|-------------------------||
||--7-----5-(5)------|-0-----2------------2----||
||o-5-----3-(3)----0-|-x-----0-0-0-3b3.5--0-0-o||
||-----------------0-|-2b2.5-----0-------------||


     Pre-Chorus
  $$
      D     Dsus4        A5          C5     A5
      Gtr II
                                   PM         PM
      E E E E +Q   E E   E     E E E Q      E E
|-||-------------------|-------------------------||
|-||o------------------|------------------------o||
|-||--7-7---7-(7)------|-------------5-----------||
|-||--7-7---7-(7)------|-------7-7---5------7----||
|-||o----------------7h|=9---------0----------0-o||
|-||-------------------|-------------------------||
|
|     Gtr I
|         PM                     PM|          PM
|     E E E E +Q   E E   E     E E E Q      E E
|-||--2-2---3-(3)------|-------------------------||
|-||o-3-3---3-(3)------|------------------------o||
|-||--2-2---0-(0)------|-------------------------||
|-||--0-0-0-0-(0)--0---|-0-----2------------2----||
|-||o----------------0-|-x-----0-0-0-3b3.5--0-0-o||
|-||-----------------0-|-2b2.5-------------------||


  D     Dsus4        A5          C5     A5 B
  E E E E +Q   E E   E     E E E Q      E  E
|------------------|-------------------------|
|------------------|-------------------------|
|-7-7---7-(7)------|-------------5-----------|
|-7-7---7-(7)------|-------7-7----------7\---|
|----------------7h|=9---------0-----------2-|
|------------------|-------------------------|
|
|                            PM|
| E E E E +Q   E E   E     E E E Q      E  E
|-2-2---3-(3)------|-------------------------|
|-3-3---3-(3)------|-------------------------|
|-2-2---0-(0)------|-------------------------|
|-0-0-0-0-(0)--0---|-0-----2------------2----|
|----------------0-|-x-----0-0-0-3b3.5--0--0-|
|----------------0-|-2b2.5-----0-----------0-|


                 E
  +E  Q.    Q  E E   +E  Q   E Q  E E
|------------------|------------------||
|------------------|------------------||
|------------------|------------------||
|-----4-----4--4---|-----2---2-2--2-2-||
|-(2)-2-----2--2-2-|-(2)-2---2-2--2-2-||
|----------------0-|-(0)-0---0-0--0-0-||
|
|  E  E  Q  Q  E E   +E  E E E Q  E E
|------------------|-----0-0-0-0--0---||
|-----4--4--4--4---|-----0-0-0-0--0---||
|-----4--4--4--4---|-----1-1-1-1--1---||
|-----4--4--4--4---|-----2-2-2-2--2---||
|--2--2--2--2--2---|-----2-2-2-2--2-0-||
|----------------0-|-(0)-0-0-0-0--0-0-||


   Chorus                                        Interlude
                                           To Coda
                                           To Coda
    D     C            A5          C5     A5      D     C
    Gtr III
    W                  W                       4x E E E E +Q   Q
||-------------------|-------------------------||---------------------|
||o------------------|------------------------o||---------------------|
||-------------------|-------------------------||-7-7---5-(5)--7b9----|
||-------------------|-------------------------||-7-7---5-(5)---------|
||o------------------|------------------------o||-----0---------------|
||-------------------|-------------------------||---------------------|
|
|   Gtr II
|                                PM         PM
|   Q   E E +Q   E E   E     E E E Q      E E  4x Q   E E +Q   E   E
||-------------------|-------------------------||---------------------|
||o------------------|------------------------o||---------------------|
||--7-----5-(5)------|-------------5-----------||-7-----5-(5)---------|
||--7-----5-(5)------|-------7-7---5------7----||-7-----5-(5)---------|
||o----------------7h|=9---------0----------0-o||------------------7h=|
||-------------------|-------------------------||---------------------|
|
|   Gtr I
|   E E E E +Q   E E   E     E E E Q      E E  4x E E E E +Q   E   E
||-------------------|-------------------------||---------------------|
||o-7-7---5-(5)------|------------------------o||-7-7---5-(5)---------|
||--7-7---5-(5)------|-------------------------||-7-7---5-(5)---------|
||--7-7---5-(5)------|-0-----2-2-2--------2----||-7-7---5-(5)---------|
||o-5-5---3-(3)----0-|-x-----0-0-0-3b3.5--0-0-o||-5-5---3-(3)------0--|
||-----------------0-|-2b2.5-------------------||------------------0--|


                                                            D.S. al Coda
  A5          C5      A5      D     C              A5
                          PM
  +E  E E E   E E S   +S  E   E E E E +Q   E E     +E     E E E   E E Q
|-----5-5-----5-5-----------|--------------------|--------5-5-----5-------||
|-----5-5-----5-5-7b8r(7)---|--------------------|--------5-5-----5-------||
|-(7)-----7b9-----7b8r(7)---|-7-----5-(5)----7b9-|-(7)--------7b9---------||
|---------------------------|-7-7---5-(5)--5-----|------------------------||
|-------------------------0-|---9-0--------------|------------------------||
|---------------------------|--------------------|------------------------||
|
|         PM              PM
|  E  E E E   Q   E       E   Q   E E +Q   E E      E     E E E   E E Q
|---------------------------|--------------------|------------------------||
|---------------------------|--------------------|------------------------||
|-------------5-------------|-7-----5-(5)--------|------------------------||
|-----7-7-----5---7---------|-7-----5-(5)--------|--------7-7-----7-------||
|--9------0---------------0-|----------------7h==|==9---------9-----------||
|---------------------------|--------------------|------------------------||
|
| Gtr I
|  W                          E E E E  Q   E E      E     E E E   E E Q
|---------------------------|--------------------|------------------------||
|---------------------------|-7-7---5--5---------|------------------------||
|---------------------------|-7-7---5--5---------|------------------------||
|---------------------------|-7-7---5--5---------|--0-----2-2-----2-------||
|---------------------------|-5-5---3--3-----0---|--x-----0-0-0---0-------||
|---------------------------|----------------0---|--2b2.5-----2-----------||


 Guitar Solo
  &
  D         C              A5             C5      A5
  Gtr III
                                                      PM
  E   +E  E E +Q.    E     +E     E E E   E     E E   E
|-8-------5--------------|--------5-5-----5-----5-------|
|-7b8r(7)-5----------7b8-|-(7)----5-------5-----5-------|
|-----------5-(5)----7b8-|-(7)--------7b9---------7b8-5-|
|------------------------|------------------------------|
|------------------------|------------------------------|
|------------------------|------------------------------|
|
| Gtr II
| E    E  E E +Q   E E      E     E E E   Q       E   E
|------------------------|------------------------------|
|-7----7----5-(5)--------|------------------------------|
|-7----7----5-(5)--------|------------------------------|
|-7----7----5-(5)--------|--0-----2-2-2-----------2-----|
|-5----5----3-(3)----0---|--x-----0-0-0---3b3.5---0---0-|
|--------------------0---|--2b2.5-----------------------|
|
| Gtr III
|                                     PM              PM
| Q       E E +Q   E E      E     E E E   Q       E   E
|------------------------|------------------------------|
|------------------------|------------------------------|
|-7---------5-(5)--------|----------------5-------------|
|-7---------5-(5)--------|--------7-7-----5-------7-----|
|--------------------7---|--9---------0---------------0-|
|------------------------|------------------------------|


  D         C
  E   +E  E E +E  E   +Q
|-8-------5-------------------|
|-7b8r(7)-5-------7b8r(7)b9---|
|-----------5-(5)-7b8r(7)b9---|
|-----------------------------|
|-----------------------------|
|-----------------------------|
|
| E    E  E E +Q       E    E
|-----------------------------|
|-7----7----5-(5)-------------|
|-7----7----5-(5)-------------|
|-7----7----5-(5)-------------|
|-5----5----3-(3)-----------0-|
|---------------------------0-|
|
| Q       E E +Q       E    E
|-----------------------------|
|-----------------------------|
|-7---------5-(5)-------------|
|-7---------5-(5)-------------|
|---------------------------7-|
|-----------------------------|


  A5               C5       A5
                         ~~
  +E     E     E E S     E. E E
|---------------------------------|
|-(7)----5b5.5--------------------|
|-(7)----5b5.5-----5----------7b9-|
|--------------7-7-------7--------|
|---------------------------------|
|---------------------------------|
|
|  E     E     E E Q        E E
|---------------------------------|
|---------------------------------|
|---------------------------------|
|--0-----2-----2-2----------2-----|
|--x-----0-----0-0-3b3.5----0-0---|
|--2b2.5--------------------------|
|
|                PM           PM
|  E     E     E E Q        E E
|---------------------------------|
|---------------------------------|
|------------------5--------------|
|--------7-----7---5--------7-----|
|--9-------------0------------0---|
|---------------------------------|


  D       C                  A5               C5     A5
  +E  E E E    Q   E   +E    +S     +S  E E E Q      E E
|-----5-5------5-----------|----------------------------------|
|-----5-5------5-----------|------------------5b5.5--7-5b5.5--|
|-(7)-----7b9------7b8r(7)-|-(7)b8--(7)-5---7-5b5.5--7-5b5.5--|
|--------------------------|--------------7-------------------|
|--------------------------|----------------------------------|
|--------------------------|----------------------------------|
|
|  E  E E E   +Q   E    E     E         E E E Q      E E
|--------------------------|----------------------------------|
|--7--7---5---(5)----------|----------------------------------|
|--7--7---5---(5)----------|----------------------------------|
|--7--7---5---(5)----------|--0---------2-2-2--------2--------|
|--5--5---3---(3)-------0--|--x---------0-0-0-3b3.5--0-0------|
|-----------------------0--|--2b2.5---------------------------|
|
|                                           PM         PM
|  Q    E E   +Q   E    E     E         E E E Q      E E
|--------------------------|----------------------------------|
|--------------------------|----------------------------------|
|--7------5---(5)----------|------------------5---------------|
|--7------5---(5)----------|------------7-7---5------7--------|
|-----------------------7--|--9-------------0----------0------|
|--------------------------|----------------------------------|


  D         C             A5          C5         A5
  E E E     E  E  E E E   E     E E E +E      E  E  E
|-----------------------|--------------------------------|
|---7-5b5.5----7--5---7-|-5b5.5-----5-(5)----\3/---------|
|---7-5b5.5----7----7-7-|-5b5.5---7-5-(5)----\3/---16b18-|
|-7---------7-------7---|-------7------------------------|
|-----------------------|------------------------x-------|
|-----------------------|--------------------------------|
|
| E E E     E +Q    E E   E     E E E  Q         E  E
|-----------------------|--------------------------------|
|-7-7-------5-(5)-------|--------------------------------|
|-7-7-------5-(5)-------|--------------------------------|
|-7-7-------5-(5)-------|-0-----2-2-2------------2-------|
|-5-5-------3-(3)-----0-|-x-----0-0-0--3b3.5-----0--0----|
|---------------------0-|-2b2.5--------------------------|
|
|                                   PM              PM
| Q   E     E +Q    E E   E     E E E  Q         E  E
|-----------------------|--------------------------------|
|-----------------------|--------------------------------|
|-7---------5-(5)-------|--------------5-----------------|
|-7---------5-(5)-------|-------7-7----5---------7-------|
|---------------------7-|-9---------0---------------0----|
|-----------------------|--------------------------------|


  D          C
   +E   E  E  E     E   E  E      E
|------17-17-------17--17---------------|
|------17-17-------17--17--------17-----|
|-(16)-------16b18--------16b18==16pb18-|
|---------------------------------------|
|---------------------------------------|
|---------------------------------------|
|
|   E   E  E  E    +Q      E      E
|---------------------------------------|
|---7---7-----5----(5)------------------|
|---7---7-----5----(5)------------------|
|---7---7-----5----(5)------------------|
|---5---5-----3----(3)------------0-----|
|---------------------------------0-----|
|
|   Q      E  E    +Q      E      E
|---------------------------------------|
|---------------------------------------|
|---7---------5----(5)------------------|
|---7---------5----(5)------------------|
|---------------------------------7-----|
|---------------------------------------|


  A5                 C5         A5
   E      E     E  E  +E      E  E  E
|----------------------------------------|
|-17-----17----17-17-(17)----------17----|
|-16pb18-16b18-16-14-(14)-------14-16b18-|
|----------------------------16----------|
|----------------------------------------|
|----------------------------------------|
|
|  E      E     E  E   Q         E  E
|----------------------------------------|
|----------------------------------------|
|----------------------------------------|
|--0------2-----2--2-------------2-------|
|--x------0-----0--0---3b3.5-----0--0----|
|--2b2.5---------------------------------|
|
|                  PM               PM
|  E      E     E  E   Q         E  E
|----------------------------------------|
|----------------------------------------|
|----------------------5-----------------|
|---------7-----7------5---------7-------|
|--9---------------0----------------0----|
|----------------------------------------|


  D              C                           A5               C5        A5
   E      +E   E  E     +E   E  E      +E     +E      E  E  E  E     E  E  E
|---------------------------17-------------|------------------------------------|
|-17-------------17---------17-17----------|---------17-17----------------20----|
|-16pb17r(16)-14-16b17-(16)----16pb17r(16)-|-(16)----14-14----14s====9/---19b21-|
|------------------------------------------|---------------16-----------0-------|
|------------------------------------------|------------------------------------|
|------------------------------------------|------------------------------------|
|
|  E       E   E  E     +Q      E       E      E      E  E  E  Q        E  E
|------------------------------------------|------------------------------------|
|--7-------7------5-----(5)----------------|------------------------------------|
|--7-------7------5-----(5)----------------|------------------------------------|
|--7-------7------5-----(5)----------------|---0------2--2--2-----------2-------|
|--5-------5------3-----(3)-------------0--|---x------0--0--0--3b3.5----0--0----|
|---------------------------------------0--|---2b2.5----------------------------|
|
|                                                           PM             PM
|  Q           E  E     +Q      E       E      E      E  E  E  Q        E  E
|------------------------------------------|------------------------------------|
|------------------------------------------|------------------------------------|
|--7--------------5-----(5)----------------|-------------------5----------------|
|--7--------------5-----(5)----------------|----------7--7-----5--------7-------|
|---------------------------------------7--|---9------------0--------------0----|
|------------------------------------------|------------------------------------|


  D          C
   +E   E  E  E     E   E  E  E
|------17--------------------------|
|------17-17-20--------20-20-------|
|-(19)-------19b21-19--------19b21-|
|----------------------------------|
|----------------------------------|
|----------------------------------|
|
|   E   E  E  E    +Q      E  E
|----------------------------------|
|---7---7-----5----(5)-------------|
|---7---7-----5----(5)-------------|
|---7---7-----5----(5)-------------|
|---5---5-----3----(3)--------0----|
|-----------------------------0----|
|
|             PM              PM
|   E   E  E  E     Q      E  E
|----------------------------------|
|----------------------------------|
|-------------------5--------------|
|-------7--7--------5------7-------|
|---9---------0---------------0----|
|----------------------------------|


  A5                            C5           A5
   E      E      E     S  S      E      E     S  S      E
|------------------------------------------------------20-|
|-20-----20-----------20--------20-----------20--------20-|
|-19pb21-19pb21-19b21----19pb21--------19b21----19pb21----|
|---------------------------------------------------------|
|---------------------------------------------------------|
|---------------------------------------------------------|
|
|  E      E      E     E         Q            E         E
|---------------------------------------------------------|
|---------------------------------------------------------|
|---------------------------------------------------------|
|--0------2------2-----2----------------------2-----------|
|--x------0------0-----0---------3b3.5--------0---------0-|
|--2b2.5--------------------------------------------------|
|
|  Q             E     E        +Q            E         E
|---------------------------------------------------------|
|---------------------------------------------------------|
|--7-------------------5--------(5)-----------------------|
|--7-------------------5--------(5)-----------------------|
|-------------------------------------------------------7-|
|---------------------------------------------------------|


  D                  C
   E     S  S      E  E     S   S      E  E     S  S
|-------20--------20---------------------------20--------|
|-------20--------20-------20---------20-------20--------|
|-19b21----19pb21----19b21-----19pb21----19b21----19pb21-|
|--------------------------------------------------------|
|--------------------------------------------------------|
|--------------------------------------------------------|
|
|  E     E         E  E    +Q             E     E
|--------------------------------------------------------|
|--7-----7------------5----(5)---------------------------|
|--7-----7------------5----(5)---------------------------|
|--7-----7------------5----(5)---------------------------|
|--5-----5------------3----(3)------------------0--------|
|-----------------------------------------------0--------|
|
|                     PM                        PM
|  E     E         E  E     Q             E     E
|--------------------------------------------------------|
|--------------------------------------------------------|
|---------------------------5----------------------------|
|--------7---------7--------5-------------7--------------|
|--9------------------0-------------------------0--------|
|--------------------------------------------------------|


                              D.S.S. al Dbl. Coda
  A5                        C5               A5
   E      E     S  S      E  E      S  S      Q
|-20-----------20--------20-------------------------||
|-20-----------20--------20--------20--------20\----||
|--------19b21----19pb21----19b21-----19pb21--------||
|---------------------------------------------------||
|---------------------------------------------------||
|---------------------------------------------------||
|
|  E      E     E         E  Q                E   E
|---------------------------------------------------||
|---------------------------------------------------||
|---------------------------------------------------||
|--0------2-----2---------2-------------------2-----||
|--x------0-----0---------0--3b3.5------------0---0-||
|--2b2.5--------------------------------------------||
|
|  Q            E         E +Q                E   E
|---------------------------------------------------||
|---------------------------------------------------||
|--7----------------------5-(5)---------------------||
|--7----------------------5-(5)---------------------||
|-------------------------------------------------7-||
|---------------------------------------------------||


    &&
    Gtr II
    E E E E +Q   E E   E     E E E  Q      E E  3x
||-------------------|--------------------------||
||o-7-7---5-(5)------|-------------------------o||
||--7-7---5-(5)------|--------------------------||
||--7-7---5-(5)------|-0-----2-2-2---------2----||
||o-5-5---3-(3)----0-|-x-----0-0-0--3b3.5--0-0-o||
||-----------------0-|-2b2.5--------------------||
|
|   Gtr I
|         PM       PM
|   E E E E  Q   E E   Q       E E +Q      E E  3x
||-------------------|--------------------------||
||o------------------|-------------------------o||
||-----------5-------|-7---------5-(5)----------||
||----7-7----5---7---|-7---------5-(5)----------||
||o-9-----0--------0-|-----------------------7-o||
||-------------------|--------------------------||


  Q   E E +Q   E E   E     E E E E E Q
|------------------|---------------------*|
|------------------|---------------------*|
|-7-----5-(5)------|---------------------*|
|-7-----5-(5)------|-------7-7---7-------*|
|----------------7h|=9---------9---------*|
|------------------|---------------------*|
|
| E E E E  Q   E E   E     E E E E E Q
|------------------|---------------------*|
|-7-7---5--5-------|---------------------*|
|-7-7---5--5-------|---------------------*|
|-7-7---5--5-------|-0-----2-2---2-------*|
|-5-5---3--3-----0-|-x-----0-0-0-0-------*|
|----------------0-|-2b2.5-----2---------*|


Duration Legend
---------------
W - whole; H - half; Q - quarter; E - 8th; S - 16th; T - 32nd; X - 64th; a - acciaccatura
+ - note tied to previous; . - note dotted; .. - note double dotted
Uncapitalized letters represent notes that are staccato (1/2 duration)
Irregular groupings are notated above the duration line
Duration letters will always appear directly above the note/fret number it represents the
duration for.  Duration letters with no fret number below them represent rests.  Multi-
bar rests are notated in the form Wxn, where n is the number of bars to rest for.  Low
melody durations appear below the staff

Tablature Legend
----------------
 h   - hammer-on
 p   - pull-off
 b   - bend
 pb  - pre-bend
 r   - bend release (if no number after the r, then release immediately)
 /\  - slide into or out of (from/to "nowhere")
 s   - legato slide
 S   - shift slide
  - natural harmonic
[n]  - artificial harmonic
n(n) - tapped harmonic
 ~   - vibrato
 tr  - trill
 T   - tap
 TP  - trem. picking
 PM  - palm muting
\n/  - tremolo bar dip; n = amount to dip
 \n  - tremolo bar down
 n/  - tremolo bar up
/n\  - tremolo bar inverted dip
 =   - hold bend; also acts as connecting device for hammers/pulls
 <>  - volume swell (louder/softer)
 x   - on rhythm slash represents muted slash
 o   - on rhythm slash represents single note slash

Misc Legend
-----------
 |  - bar
||  - double bar
||o - repeat start
o|| - repeat end
*|  - double bar (ending)
 :  - bar (freetime)
 $  - Segno
 &  - Coda
Tempo markers -  = BPM(8/16=s8/s16), where s8 = swing 8ths, s16 = swing 16ths


***************************************************************************************
* Generated using Power Tab Editor by Brad Larsen - http://powertab.guitarnetwork.org *
***************************************************************************************
Tap to rate this tab
# A B C D E F G H I J K L M N O P Q R S T U V W X Y Z