Guitaretab - guitar tabs
Song name
# A B C D E F G H I J K L M N O P Q R S T U V W X Y Z

Ac Dc - Shot Down In Flames tab

AC/DC
Shot Down In Flames
Young/Young/Scott
Tabbed by: Dylan Cooke

None of the tabs were the way I played this song so I decided to tab it
I have watched this video (the one from the family jewels DVD, where Angus
blows up at the end) millions of times and I quite certain that 
This is how Angus plays it

This is the exact progression of the song

<<<<< = Pick Scrape upwards 
h = Hammer On



INTRO
e|--------------------|------------------|X1
B|--3---3--3---3--3---|--3---3--3---3----|
G|--0h2-2--0h2-2--0h2-|--0h2-2--0h2-2--2-|
D|--0---0--0---0--0---|--0---0--0---2--2-|
A|--------------------|----------------0-|
E|--------------------|------------------|

RIFF 1
e|---------------------|X12
B|--10-10--8-----------|
G|---9--9--7---7-7--5--|
D|-------------7-7--5--|
A|---------------------|
E|---------------------|

RIFF 1B
e|---------------------|X1 rhythm guitar (Malcolm) plays this during
B|--3---3--3---3--3----|the 8th time of RIFF 1 and also during
G|--0h2-2--0h2-2--0h2--|the 10th time of RIFF 1
D|--0---0--0---0--0----|
A|---------------------|
E|---------------------|

Pre-Chorus
e|-------------------------------------|
B|--3---3--3---3--3---3--3---3--3---3--|
G|--0h2-2--0h2-2--0h2-2--0h2-2--0h2-2--|
D|--0---2--0---0--0---0--0---0--0---2--|
A|-------------------------------------|
E|-------------------------------------|






Chorus
e|-------3--3-3---2-2----------| X4
B|-------3--3-3---3-3----------|
G|--2-2--0--0-0---2-2--5--5-5--|
D|--2-2--0--0-0---0-0--5--5-5--|
A|--0-0--2--2-2--------3--3-3--|
E|-------3--3-3----------------|

Chorus
e|-------3--3-3--|on the 4th time of the above riff play 
B|-------3--3-3--|this only
G|--2-2--0--0-0--|
D|--2-2--0--0-0--|
A|--0-0--2--2-2--|
E|-------3--3-3--|

e|------------------------------|X1 play this immediately after
B|--3---3--3---3--3---3--3---3--|the previous riff
G|--0h2-2--0h2-2--0h2-2--0h2-2--|
D|--0---2--0---0--0---0--0---0--|
A|------------------------------|
E|------------------------------|




RIFF 2
e|---------------------|X8
B|--10-10--8-----------|
G|---9--9--7---7-7--5--|
D|-------------7-7--5--|
A|---------------------|
E|---------------------|

RIFF 2B
e|---------------------|X1 rhythm guitar (Malcolm) plays this during
B|--3---3--3---3--3----|the 4th time of the previous riff and also during
G|--0h2-2--0h2-2--0h2--|the 6th time of RIFF 1
D|--0---0--0---0--0----|
A|---------------------|
E|---------------------|

Pre-Chorus
e|-------------------------------------|
B|--3---3--3---3--3---3--3---3--3---3--|
G|--0h2-2--0h2-2--0h2-2--0h2-2--0h2-2--|
D|--0---2--0---0--0---0--0---0--0---2--|
A|-------------------------------------|
E|-------------------------------------|




[ Tab from: http://www.guitaretab.com/a/ac-dc/165.html ]
Chorus
e|-------3--3-3---2-2----------| X4
B|-------3--3-3---3-3----------|
G|--2-2--0--0-0---2-2--5--5-5--|
D|--2-2--0--0-0---0-0--5--5-5--|
A|--0-0--2--2-2--------3--3-3--|
E|-------3--3-3----------------|

Chorus
e|-------3--3-3--|on the 4th time of the above riff play 
B|-------3--3-3--|this only
G|--2-2--0--0-0--|
D|--2-2--0--0-0--|
A|--0-0--2--2-2--|
E|-------3--3-3--|

e|-------------------------------------|X2
B|--3---3--3---3--3---3--3---3--3-3-3--|
G|--0h2-2--0h2-2--0h2-2--0h2-2--0-2-2--|
D|--0---2--0---0--0---0--0---0--0-2-2--|
A|-------------------------------------|
E|-------------------------------------|




Pre-Solo
e|-------3---------2-2------------|X4
B|-------3---------3-3------------|
G|--2-2--0---------2-2--5---------|
D|--2-2--0-<<<<<---0-0--5--<<<<<--|
A|--0-0--2-<<<<<--------3--<<<<<--|
E|-------3-<<<<<-----------<<<<<--|

Iím not going to tab the solo because It takes to long and the 
other versions are correct

Fill
e|-------3--3-3---2-2----------|Rhythm guitar (Malcolm) plays
B|-------3--3-3---3-3----------|this during Angusí solo
G|--2-2--0--0-0---2-2--5--5-5--|
D|--2-2--0--0-0---0-0--5--5-5--|
A|--0-0--2--2-2--------3--3-3--|
E|-------3--3-3----------------|

Chorus
e|-------3--3-3---2-2----------| X4
B|-------3--3-3---3-3----------|
G|--2-2--0--0-0---2-2--5--5-5--|
D|--2-2--0--0-0---0-0--5--5-5--|
A|--0-0--2--2-2--------3--3-3--|
E|-------3--3-3----------------|


Chorus
e|-------3--3-3--|on the 4th time of the above riff play 
B|-------3--3-3--|this only
G|--2-2--0--0-0--|
D|--2-2--0--0-0--|
A|--0-0--2--2-2--|
E|-------3--3-3--|

Pre-Chorus
e|-------------------------------------|
B|--3---3--3---3--3---3--3---3--3---3--|
G|--0h2-2--0h2-2--0h2-2--0h2-2--0h2-2--|
D|--0---2--0---0--0---0--0---0--0---2--|
A|-------------------------------------|
E|-------------------------------------|

Chorus
e|-------3--3-3---2-2----------| X4
B|-------3--3-3---3-3----------|
G|--2-2--0--0-0---2-2--5--5-5--|
D|--2-2--0--0-0---0-0--5--5-5--|
A|--0-0--2--2-2--------3--3-3--|
E|-------3--3-3----------------|

Chorus
e|-------3--3-3--|on the 4th time of the above riff play 
B|-------3--3-3--|this only
G|--2-2--0--0-0--|
D|--2-2--0--0-0--|
A|--0-0--2--2-2--|
E|-------3--3-3--|

e|-------------------------------------|X4
B|--3---3--3---3--3---3--3---3--3-3-3--|
G|--0h2-2--0h2-2--0h2-2--0h2-2--0-2-2--|
D|--0---2--0---0--0---0--0---0--0-2-2--|
A|-------------------------------------|
E|-------------------------------------|

Then there is a little solo at the end witch you can get 
From another tab

At the very end there is the chord that AC/DC ends 
Lots of their songs with, witch is
E Chord

e|-----|
B|-----|
G|--1--|
D|--2--|
A|--2--|
E|--0--|

Related for Shot Down In Flames tab