Song name
# A B C D E F G H I J K L M N O P Q R S T U V W X Y Z

Ac Dc - Hard As A Rock tab

HARD AS A ROCK


Gtr. 1 Mainlick       3 Times

e|--2--4--5---4--2--0--2--4--2-------4--0----4-2--|
b|--0--0--0---0--0--0--0--0--0-------0--0----0-0--|
g|------------------------------------------------|
D|------------------------------------------------|
A|------------------------------------------------|
E|------------------------------------------------|
Gtr. 2       w/Gtr. 1                          Pattern 1
e||-----------------------------------------------|
b||-----------------------------------------------|
g||*------4---------1--------4-------4--1----1-4-*|
D||*------4---------2--------4-------4--2----2-4-*|
A||-------2---------2--------2-------2--2----2-2--|
E||-----------------0-------------------0----0----|


RIFF 1
| e|---------------|---------------|---------------|*---------------|----------|
| b|---------------|---------------|---------------|*---------------|----------|
| g|-1-4--4--4--4--|-1-4--4--4--4--|-1-4--4--4--4--|*-1-4--4--4--4--|2-----4---|
| D|-2-4--4--4--4--|-2-4--4--4--4--|-2-4--4--4--4--|*-2-4--4--4--4--|2--2--4---|
| A|-2-2--2--2--2--|-2-2--2--2--2--|-2-2--2--2--2--|*-2-2--2--2--2--|0--2--2---|
| E|-0-------------|-0-------------|-0-------------|*-0-------------|---0------|
|
| Gtr.2 plays something like:
|   Pattern 2a w/Gtr.1
| e|-----------------------------------------------|*--------------------------|
| b|-----------------------------------------------|*--------------------------|
| g|-----------------------------------------------|*--------------------------|
| D|-9-------------x--9------------x--9------------|*x-9-------------7---------|
| A|-7-9--9--9--9--x--7-9--9--9--9-x--7-9--9--9--9-|*x-7-9--9--9--9--7--7--9---|
| E|---7--7--7--7--x--0-7--7--7--7-x--0-7--7--7--7-|*x-0-7--7--7--7-----7--7---|

RIFF 2
E|--5--4--2---4--5--4--2--4--5--4--2---------|
B|--0--0--0---0--0--0--0--0--0--0--0---------|
G|-------------------------------------------|
D|-------------------------------------------|
A|-------------------------------------------|
E|-------------------------------------------|
   "HER HOT PATATOS..."
E|-------------------------------------------|
B|-------------------------------------------|
G|--2----4--------2--1---1--2----------------|
D|--2----4--------2--2---2--2----------------|
A|--0----2-----2--2--2---2--2-.-.------------|
E|--0--0----0--0--0--0---0--0--0--0----------|

RIFF 3 B
E|---------------------------------------|
B|---------------------------------------|
G|------2--------------------------------|
D|--2---2---2----------------------------|
A|--2---0---2----------------------------|
E|--0-------0----------------------------|

E|---------------------------------------|
B|---------------------------------------|
G|------2---9--/-------------------------|
D|--2---2---9--/-------------------------|
A|--2---0---7--/-------------------------|
E|--0-------0----------------------------|
"STANDIN PROUD......,or hard as a rock"

fill 1                 fill 2
E|-----------------| |---------------|-----------------------5--4-----------------|
B|-----------------| |---------------|-----7--7---7~~~~------0--0-----------------|
G|--9--7--9--------| |---7^--4~~~~~--|-----------------------4--4-----------------|
D|----------9~~~~~-| | --------------|------------9~~~----------------------------|
A|-----------------| |---------------|-------------------x\-----------------------|
E|-----------------| |---------------|--------------------------------------------|

                     |---------------|------------------7-x-7~~~~~~10^------------|
                     |---------------|----------------------------------10^-------|
                     |-------4~~~~~~-|----4-^-7-^-4--9^---------------------------|
                     |---------------|--------------------------------------------|
                     |---6-----------|--------------------------------------------|
                     |---------------|--------------------------------------------|
SOLO

e|-------7--7---------------------------------------------------------------14^------------|
b|--10^-----7--9^---9---7^--------------------9^-9~~~---7--9/10-10~~~~------15^-------15^--|
g|-------------9^-7-9---7^----------------7^--9^-9~~~---7--9/11--------x--------16~~~------|
D|--------------------9-----x-x--9-9~~~~-------------------------------x-------------------|
A|--------------------------x-x--x---------------------------------------------------------|
E|-----------------------------------------------------------------------------------------|


e|---------------------------------------------------12-----14-----------------------------|
b|-----x----17^-15-17----17^-~~~-17^-----12-12-12-15^---17^----15^-----------------17^--15^|
g|-----x-16-----------16--------------14^---------------------------16-16~~~-16-16---------|
D|-------------------------------------------------------------------x---------------------|
A|-----------------------------------------------------------------------------------------|
E|-----------------------------------------------------------------------------------------|

|----------------------------------------------------|
|----------------------------------------------------|
|--16~~~-16~~~~~~~~~~~~~~~~~~~~~~~~~~~~~-(15)\-------|
|---------------------------------------------\------|
|----------------------------------------------------|
|----------------------------------------------------|
                     "harder then a rock"


2nd SOLO / OUTRO
|----------------------------------------------------|----------7-------------10^------------|
|----------------------------------------------------|--------7---------/12~~~---------------|
|-2-x-4~~~~~~~~~~~~~~~~~~~~--------------------------|---9^----------------------------------|
|-7---9~~~~~~~~~~~~~~~~~~~~--------------------------|---------------------------------------|
|----------------------------------------------------|---------------------------------------|
|----------------------------------------------------|---------------------------------------|

|--12^--12^------10-------------------------7-7~~~-----------------x-14-14^----14^-14~~~-------|
|-------------------12-12~~-------------10-------10^---------------x-15-15^----15^-15~~~15~~~--|
|--------------------------11\-----------------------------------------------------------------|
|----------------------------------------------------------------------------------------------|
|----------------------------------------------------------------------------------------------|
|----------------------------------------------------------------------------------------------|
                                                    hold bend . . . . . . .
|-----------------14----------------17-------------14^-14--14-14-14-14-16-14-----14^----14^--|
|-------15^--17^-----15^---------------17^-15^-----15^-15--15-15-15-15-17-15-----15^----15^--|
|--15~~~--------------------16~~~16----------------------------------------------------------|
|--------------------------------------------------------------------------------------------|
|--------------------------------------------------------------------------------------------|
|--------------------------------------------------------------------------------------------|

|-------------------17-14--------------------------------------------------------------------|
|-----------15^--17-------15^--17-15-17^--17-^-17^-17^-17^~~~~~~-----------------------------|
|-16~~~16~~~---------------------------------------------------------------------------------|
|--------------------------------------------------------------------------------------------|
|--------------------------------------------------------------------------------------------|
|--------------------------------------------------------------------------------------------|
                          hold bend  . . . .
|--14--12---------12-------------------------------------------------------------------------|
|--------15^--15^----15^-15-15-15-15-15-15-15---10^~~~-10-7----------------------------------|
|-----------------------------------------------------------9^7~~~~~~~--2/4---------4\-------|
|--------------------------------------------------------------------------------------------|
|--------------------------------------------------------------------------------------------|
|--------------------------------------------------------------------------------------------|

BONUS
Somthing i want to add, Angus doesnt actualy play this, but it sounds heavier towards the end.

e|--2--4--5---4--2--0--2--4--2---4--0---4-2-----|
b|--0--0--0---0--0--0--0--0--0---0--0---0-0-----|
g|--4--4--4---4--4--4--4--4--4---4--4---4-4-----|
D|----------------------------------------------|
A|----------------------------------------------|
E|----------------------------------------------|

END BIT (you shouldve been able to work this out yourself)

e|--5---4---2---0---2---4-----------------||
b|--0---0---0---0---0---0-----------------||
g|----------------------------------------||
D|-----------------------------9--/-------||
A|-----------------------------9--/-------||
E|-----------------------------7--/-------||
Tap to rate this tab
# A B C D E F G H I J K L M N O P Q R S T U V W X Y Z