Song name
# A B C D E F G H I J K L M N O P Q R S T U V W X Y Z

Ac Dc - Cover You In Oil tab

================================================================================
         Title : Cover You In Oil
        Artist : AC/DC
         Album : Ballbreaker
================================================================================


 MAIN RIFF

E|-----------------------------|--------------------|
B|-----------------------------|--------------------|
G|--2--2--2-----------------2--|--2-----------------|
D|--2-----2--5--4--5--4--5--2--|-----5--4--5--4--5--|
A|--0-----0--0--0--0--0--0--0--|-----0--0--0--0--0--|
E|-----------------------------|--------------------|





E|------------------------------|--------------------|
B|------------------------------|--------------3--3--|
G|--2--2---------------------2--|--2-----------2--2--|
D|--2-------5--4--5----4--5-----|-----5--4--5--0--0--|
A|--0-------0--0--0----0--0--0--|-----0--0--0--------|
E|------------------------------|--------------------|



 BRIDGE

E|-------3------------|----------------------------------|
B|--3----3------------|----------------------------------|
G|--2----0---------3--|------------2---------------------|
D|--0----0---------3--|------------3------3----3----3----|
A|-----------------1--|--1---------3------3----3----3----|
E|-------3----1-------|-------1-----------1----1----1----|





E|--------------------------|----------------------------|
B|--------------------------|----------------------------|
G|--5--5--5--5--5--5--5--5--|--5--5--5--5--5--5--5----5--|
D|--5--5--5--5--5--5--5--5--|--5--5--5--5--5--5--5----5--|
A|--3--3--3--3--3--3--3--3--|--3--3--3--3--3--3--3----3--|
E|--------------------------|----------------------------|
Tap to rate this tab
 
# A B C D E F G H I J K L M N O P Q R S T U V W X Y Z